Guitar Tabs, Chords and Lyrics
Server problems seems to be fixed. Chordie has been experiencing problems with songs disappearing. These issues now seems to be fixed, but still verifying the fix. If you find anything strange, please email admin@chordie.com.


You’re Still the One  Shania Twain

Title: You're Still The One
Artist: Shania Twain
Written by: Shania Twain and Robert John "Mutt" Lange
Album: Come On Over
Tab by: Johnuel(grayn_003@yahoo.com) FB anD fS!
I'm not 100% sure about the ending, but the rest is pretty close.
Play on a clean-sounding 6 or 12 string guitar.
[E]  
 
 e|--------------------------|
 B|--------------------------|
 G|--1-----------------------|
 D|--2-----------------------|
 A|--2-----------------------|
 E|--------------------------|

[A4]  
 
 e|--------------------------|
 B|--------------------------|
 G|--2-----------------------|
 D|--2-----------------------|
 A|--------------------------|
 E|--------------------------|

[B]  
 
 e|-2------------------------|
 B|--4-----------------------|
 G|--4-----------------------|
 D|--4-----------------------|
 A|-2------------------------|
 E|--------------------------|

[F#m]  
 
 e|--2---------------------|
 B|--2---------------------|
 G|--2---------------------|
 D|--4---------------------|
 A|--4---------------------|
 E|--2---------------------|

[ Tab from: bttp://www.guitartabs.cc/tabs/s/sbania_twain/youre_still_tbe_one_crd_ver_6.btml ] 
[Intro] 
[E] [E] [A4] [B]  
[Verse 1] 
Lo[E]oks like we made it, L[A4]ook how far we've co[B]me my baby
We[E] mighta took the long way, [A4]We knew we'd ge[B]t there someday
[Bridge] 
Th[E]ey said, "I bet th[A4]ey'll never ma[B]ke it"
But just [E]look at us [A4]holding o[B]n
We're still toge[E]ther still g[A4]oing stro[B]ng
[Cborus] 
You're still the o[E]ne
You're still the one I r[A4]un to
T[F#m]he one that I be[B]long to
Yo[E]u're still the o[A4]ne I want for l[B]ife
You're still the o[E]ne
You're still the one that [A4]I love
T[F#m]he only one I dr[B]eam of
Yo[E]u're still the one I k[A4]iss good nig[B]ht
[Verse 2] 
Ai[E]n't nothin' better
We[A4] beat the o[B]dds together
I'[E]m glad we didn't listen
Lo[A4]ok at what we wo[B]uld be missin'
[Repeat Bridge] 
[Repeat Cborus] 
[Solo - E A4 B] 
[Repeat Cborus] 
I[E]'m so glad we made it
L[A4]ook how far we've c[B]ome my baby
Hope u EnjoY iT!

Important: The song above is NOT stored on the Chordie server. The original song is hosted at www.guitartabs.cc. Chordie works as a search engine and provides on-the-fly formatting. Chordie does not index songs against artists'/composers' will. To remove this song please click here.

Text color:
Chord color:
Chord grids: 
Font size:    
Page size: 

A4 B E F#m
Rate #1 of 8 versions

Login - add to songbook

SHARE PAGE  



You need to log in to post comments