Guitar Tabs, Chords and Lyrics
Major upgrade!! After one year development the new version of Chordie is now online! Please give feedback.


Strong Enough  Sheryl Crow

Strong Enough by Sheryl Crow
From the Album “Tuesday Night Music Club”
Transcribed by John Curington
Below is the whole song with corrections and additions
from previous transcriptions. I hope this is an improvement.
Intro and Verse:
[1] [2] [3] [4] [5] [6] [1] [2] [3] [4] [5] [6] 
[D] [D] h[G] [Bm] [Bm] [A]
 
 E-----2-------0-2---------|-------------------------|
 B-----3---------------0---|-----3---------3-----2---|
 G-----------2-------------|-------------0-----------| 2 times for intro
 D-0-------0-----------0---|-----4-----4---------2---| repeat for verses
 A-------------------------|-2-------2-------0-------|
 E-----------------3-------|-------------------------|

Refrain (strum):
1 2 3 4 5 6 | 1 2 3 4 5 6 |
[Em]Lie [D] to [G]me [A] I
1 2 3 4 5 6 | 1 2 3 4 5 6 |
[Bm]promise [C]I'll be- [G]lieve[A]
1 2 3 4 5 6 | 1 2 3 4 5 6 |
[Em]Lie [D] to [G]me [A] But
1 2 3 4 5 6 | 1 2 3 4 5 6 |
[Bm]please [C]don't [G]leave[A]
Playing notes about the Refrain:
There are many instruments playing at once on the album,
so the guitar part is hard to hear.
Here are two suggestions. The first one is a little harder,
but they both sound decent.
Refrain:
( Tab from: http://www.guitartabs.cc/tabs/s/sheryl_crow/strong_enough_tab.html )
[1] [2] [3] [4] [5] [6] [1] [2] [3] [4] [5] [6] 
[Em] [Em] [D] [G] [G] [A] 
 
 E---------------------2---|-----3-------------------|
 B-----0---------0-----3---|-----0---------0-----2---|
 G-------------0-------2---|-----0-------0-----------|
 D-----2-----2-----0-------|-----0-----0---------2---|
 A-------------------------|-----------------0-------|
 E-0-------0---------------|-3-------3---------------|

[1] [2] [3] [4] [5] [6] [1] [2] [3] [4] [5] [6] 
[Bm] [Bm] [C] [G] [G] [A] 
 
 E-------------------------|-------------------------|
 B-----3---------3-----1---|-----0---------0-----2---|
 G-------------0-------0---|-----0-------0-----------|
 D-----4-----4---------2---|-----0-----0---------2---|
 A-2-------2-------3-------|-----------------0-------|
 E-------------------------|-3-------3---------------|

Refrain:
(simpler version, or version for second guitar)
[1] [2] [3] [4] [5] [6] [1] [2] [3] [4] [5] [6] 
[Em] [Em] [D] [G] [G] [A] 
 
 E-----0-------0-------2---|-----3-------3-------0---|
 B-----0-------0-------3---|-----0-------0-------2---|
 G-----0-------0-------2---|-----0-------0-------2---|
 D-----2-------2---0-------|-----0-------0-------2---|
 A-----2-------2-----------|-----------------0-------|
 E-0-------0---------------|-3-------3---------------|

[1] [2] [3] [4] [5] [6] [1] [2] [3] [4] [5] [6] 
[Bm] [Bm] [C] [G] [G] [A] 
 
 E-----2-------2-------0---|-----3-------3-------0---|
 B-----3-------3-------1---|-----0-------0-------2---|
 G-----4-------4-------0---|-----0-------0-------2---|
 D-----4-------4-------2---|-----0-------0-------2---|
 A-2-------2-------3-------|-----------------0-------|
 E-------------------------|-3-------3---------------|

Much thanks to all the previous transcribers.
Peace,
- john

Important: The song above is NOT stored on the Chordie server. The original song is hosted at www.guitartabs.cc. Chordie works as a search engine and provides on-the-fly formatting. Chordie does not index songs against artists'/composers' will. To remove this song please click here.

Text color:
Chord color:
Chord grids: 
Font size:    
Page size: 

A Bm C D Em G
Rate #1 of 13 versions

Jango Player

Login - add to songbook

SHARE PAGE  




You need to log in to post comments