Guitar Tabs, Chords and Lyrics
Server problems seems to be fixed. Chordie has been experiencing problems with songs disappearing. These issues now seems to be fixed, but still verifying the fix. If you find anything strange, please email admin@chordie.com.


Breaking Inside  Shinedown

Capo on 3rd!
for verses play
Intro:
Gtr I: (capo on 3rd)
 
 e|----------------------------------------|
 B|----------------------------------------|
 G|------0---------0--------0---------0----|
 D|----4---4-----4---4----4---4-----4---4--|
 A|----------------------------------------|
 E|--0-------0----------0-------0----------|

Verse:
Gtr I: (capo on 3rd)
 
 e|----------------------------------------|----------------------------------------|
 B|----------------------------------------|----------------------------------------|
 G|------0---------0--------0---------0----|------0---------0--------0---------0----|
 D|----4---4-----4---4----4---4-----4---4--|----4---4-----4---4----4---4-----4---4--|
 A|----------------------------------------|---------------------0-------0----------|
 E|--0-------0----------0-------0----------|--3-------3-----------------------------|
 e|----------------------------------------|----------------------------------------|
 B|----------------------------------------|----------------------------------------|
 G|------0---------0--------0---------0----|------0---------0--------0---------0----|
 D|----4---4-----4---4----4---4-----4---4--|----4---4-----4---4----4---4-----4---4--|
 A|----------------------------------------|---------------------0-------0----------|
 E|--0-------0----------0-------0----------|--3-------3-----------------------------|
 e|----------------------------------------|
 B|----------------------------------------|
 G|------0---------0--------0---------0----|
 D|----4---4-----4---4----4---4-----4---4--|
 A|---------------------0------0-----------|
 E|--3------3------------------------------|

I caught a chill and it's still frozen on my skin
I think about why I'm alone by myself no one else to explain
How far do I go no one knows
If the end is so much better why don't we just live forever?
[Em]Don't tell me I'm the last one [D]in line
[Em]Don't tell me I'm too late thi[D]s time
Chorus
I don't wanna li[G]ve to waste another da[D]y
Underneath [A]the shadow of mistakes I[E]'ve made
'Cuz I f[G]eel like I'm [A]breaking inside[B]
( Tab from: http://www.guitartabs.cc/tabs/s/shinedown/breaking_inside_crd.html )
I don't wan[G]na fall and say I lost [D]it all
'Cuz maybe there[A]'s a part of me that hit[E] the wall
[G]Leaving piece[A]s of me behin[B]d
[G]And I feel lik[A]e I'm breaking insid[B]e
Verse
Out here nothing's clear
Except the moment I decided to move on and I ignited
Disappear into the fear
You know there ain't no coming back when you're still carrying the past
You can't erase, separate
Cigarette in my hand, hope you all understand
I won't be the last one in line
I finally figured out what's mine
Chorus
I don't wanna li[G]ve to waste another da[D]y
Underneath [A]the shadow of mistakes I[E]'ve made
'Cuz I f[G]eel like I'm [A]breaking inside[B]
I don't wan[G]na fall and say I lost [D]it all
'Cuz maybe there[A]'s a part of me that hit[E] the wall
[G]Leaving piece[A]s of me behin[B]d
[G]And I feel lik[A]e I'm breaking insid[B]e
Solo: play chorus
[Em]I won't be the last one in li[D]ne
[Em]I finally figured out what's [D]mine
Chorus
I don't wanna li[G]ve to waste another da[D]y
Underneath [A]the shadow of mistakes I[E]'ve made
'Cuz I f[G]eel like I'm [A]breaking inside[B]
I don't wan[G]na fall and say I lost [D]it all
'Cuz maybe there[A]'s a part of me that hit[E] the wall
[G]Leaving piece[A]s of me behin[B]d
[G]And I feel lik[A]e I'm breaking insid[B]e
[G]And I feel like I'm bre[A]aking
[G]And I feel like I'm br[A]eaking inside[B]

Important: The song above is NOT stored on the Chordie server. The original song is hosted at www.guitartabs.cc. Chordie works as a search engine and provides on-the-fly formatting. Chordie does not index songs against artists'/composers' will. To remove this song please click here.

Text color:
Chord color:
Chord grids: 
Font size:    
Page size: 

A B D E Em G
Rate #1 of 3 versions

Login - add to songbook

SHARE PAGE  




You need to log in to post comments