Guitar Tabs, Chords and Lyrics
Server problems seems to be fixed. Chordie has been experiencing problems with songs disappearing. These issues now seems to be fixed, but still verifying the fix. If you find anything strange, please email admin@chordie.com.


Lady So Divine  Shinedown

===========================================================================
Title: *Lady So Devine*
Artist: Shinedown
Album: Us and Them
===========================================================================
Written by Brent Smith, Brad Stewart, Jasin Todd and Tony Battaglia
Produced by 'Driven By Music' and 'Big Ant Music, BMI (ASCAP)'
===========================================================================
Label: Atlantic Records
Year: 2005
===========================================================================
Track: -8-
===========================================================================
Tablaturized by Asa Gaston
===========================================================================
 
 Tuning: Drop-D ( D-A-D-G-B-E )

===========================================================================
INTRO
[Bb] [C] [D] [F] [G] [D] [Bb] [C] [D] [F] [G] [A]  
 
 E|---1---3---5------8----10---5------1---3---5------8----10---0-----------|
 B|---3---5---7------10---12---7------3---5---7------10---12---2-----------|
 G|---3---5---7------10---12---7------3---5---7------10---12---2-----------|
 D|---3---5---7------10---12---7------3---5---7------10---12---2-----------|
 A|---1---3---5------8----10---5------1---3---5------8----10---0-----------|
 D|------------------------------------------------------------------------|

VERSE
[A] [Bb] [A] [Bb]  
 
 E|-------------------0-0--0---1-1--1-------------------0-0--0---1-1--1----|
 B|------1-------1----2-2--2---3-3--3------1-------1----2-2--2---3-3--3----|
 G|--------0-------0--2-2--2---3-3--3--------0-------0--2-2--2---3-3--3----|
 D|-------------------2-2--2---3-3--3-------------------2-2--2---3-3--3----|
 A|---3-------1-------0-0--0---1-1--1---3-------1-------0-0--0---1-1--1----|
 D|------------------------------------------------------------------------|

[A] [Bb] [A]  
 
 E|-------------------0-0--0---1-1--1-------------------0-0-0-0-0-0-0-0----|
 B|------1-------1----2-2--2---3-3--3------1-------1----2-2-2-2-2-2-2-2----|
 G|--------0-------0--2-2--2---3-3--3--------0-------0--2-2-2-2-2-2-2-2----|
 D|-------------------2-2--2---3-3--3-------------------2-2-2-2-2-2-2-2----|
 A|---3-------1-------0-0--0---1-1--1---3-------1-------0-0-0-0-0-0-0-0----|
 D|------------------------------------------------------------------------|

[Bb] [C]  
 
 E|---0/1--1-1-1-1-1-1--1/3--3-3-3-3-3-3-----------------------------------|
 B|---2/3--3-3-3-3-3-3--3/5--5-5-5-5-5-5-----------------------------------|
 G|---2/3--3-3-3-3-3-3--3/5--5-5-5-5-5-5-----------------------------------|
 D|---2/3--3-3-3-3-3-3--3/5--5-5-5-5-5-5-----------------------------------|
 A|---0/1--1-1-1-1-1-1--1/3--3-3-3-3-3-3-----------------------------------|
 D|------------------------------------------------------------------------|

CHORUS
[D5Dsus4] [C] [Csus2] [G#/A] [C] [Csus2] [Dsus4] [C] [Csus2] [G#/A] [C] [Csus2]  
 
 E|-----5--5---3--3-3------1-1---3--3-3---5--5---3--3-3------1-1---3--3-3--|
 B|-----8--7---5--3-3---1--3-3---5--3-3---8--7---5--3-3---1--3-3---5--3-3--|
 G|-----7--7---5--5-5---1--3-3---5--5-5---7--7---5--5-5---1--3-3---5--5-5--|
 D|---0-7--7---5--5-5---1--3-3---5--5-5-0-7--7---5--5-5---1--3-3---5--5-5--|
 A|---0-5--5---3--3-3---0--1-1---3--3-3-0-5--5---3--3-3---0--1-1---3--3-3--|
 D|---0---------------------------------0----------------------------------|

[D] [Bb] [D5] [D] [Bb] 
[D5Dsus4] [C] [Csus2] [G#/A] [C] [Csus2] [Dsus4] [C] [Csus2] [G#/A] [C] [Csus2]  
 
 E|-----5--5---3--3-3------1-1---3--3-3---5--5---3--3-3------1-1---3--3-3--|
 B|-----8--7---5--3-3---1--3-3---5--3-3---8--7---5--3-3---1--3-3---5--3-3--|
 G|-----7--7---5--5-5---1--3-3---5--5-5---7--7---5--5-5---1--3-3---5--5-5--|
 D|---0-7--7---5--5-5---1--3-3---5--5-5-0-7--7---5--5-5---1--3-3---5--5-5--|
 A|---0-5--5---3--3-3---0--1-1---3--3-3-0-5--5---3--3-3---0--1-1---3--3-3--|
 D|---0---------------------------------0----------------------------------|

[D] [Bb] [D5] [D] [Bb] 
[Bb] [C] [D] [F] [G] [D] [Bb] [C] [D] [F] [G] [A]  
 
 E|---1---3---5------8----10---5------1---3---5------8----10---0-----------|
 B|---3---5---7------10---12---7------3---5---7------10---12---2-----------|
 G|---3---5---7------10---12---7------3---5---7------10---12---2-----------|
 D|---3---5---7------10---12---7------3---5---7------10---12---2-----------|
 A|---1---3---5------8----10---5------1---3---5------8----10---0-----------|
 D|------------------------------------------------------------------------|

VERSE II
[A] [Bb]  
 
 E|------------------0--9-9-9--0--10-10-10-------------------0-0--0--1-1--1|
 B|------1------1-------------------------------1-------1----2-2--2--3-3--3|
 G|--------0------0-------------------------------0-------0--2-2--2--3-3--3|
 D|----------------------------------------------------------2-2--2--3-3--3|
 A|---3------1-------------------------------3-------1-------0-0--0--1-1--1|
 D|------------------------------------------------------------------------|

[A]  
 
 E|------------------0--9-9-9--0--10-10-10-------------------0-0-0-0-0-0-0-|
 B|------1------1-------------------------------1-------1----2-2-2-2-2-2-2-|
 G|--------0------0-------------------------------0-------0--2-2-2-2-2-2-2-|
 D|----------------------------------------------------------2-2-2-2-2-2-2-|
 A|---3------1-------------------------------3-------1-------0-0-0-0-0-0-0-|
 D|------------------------------------------------------------------------|

[Bb] [C]  
 
 E|---0/1--1-1-1-1-1-1--1/3--3-3-3-3-3-3-----------------------------------|
 B|---2/3--3-3-3-3-3-3--3/5--5-5-5-5-5-5-----------------------------------|
 G|---2/3--3-3-3-3-3-3--3/5--5-5-5-5-5-5-----------------------------------|
 D|---2/3--3-3-3-3-3-3--3/5--5-5-5-5-5-5-----------------------------------|
 A|---0/1--1-1-1-1-1-1--1/3--3-3-3-3-3-3-----------------------------------|
 D|------------------------------------------------------------------------|

CHORUS
[D5Dsus4] [C] [Csus2] [G#/A] [C] [Csus2] [Dsus4] [C] [Csus2] [G#/A] [C] [Csus2]  
 
 E|-----5--5---3--3-3------1-1---3--3-3---5--5---3--3-3------1-1---3--3-3--|
 B|-----8--7---5--3-3---1--3-3---5--3-3---8--7---5--3-3---1--3-3---5--3-3--|
 G|-----7--7---5--5-5---1--3-3---5--5-5---7--7---5--5-5---1--3-3---5--5-5--|
 D|---0-7--7---5--5-5---1--3-3---5--5-5-0-7--7---5--5-5---1--3-3---5--5-5--|
 A|---0-5--5---3--3-3---0--1-1---3--3-3-0-5--5---3--3-3---0--1-1---3--3-3--|
 D|---0---------------------------------0----------------------------------|

[D] [Bb] [D5] [D] [Bb] 
[D5Dsus4] [C] [Csus2] [G#/A] [C] [Csus2] [Dsus4] [C] [Csus2] [G#/A] [C] [Csus2]  
 
 E|-----5--5---3--3-3------1-1---3--3-3---5--5---3--3-3------1-1---3--3-3--|
 B|-----8--7---5--3-3---1--3-3---5--3-3---8--7---5--3-3---1--3-3---5--3-3--|
 G|-----7--7---5--5-5---1--3-3---5--5-5---7--7---5--5-5---1--3-3---5--5-5--|
 D|---0-7--7---5--5-5---1--3-3---5--5-5-0-7--7---5--5-5---1--3-3---5--5-5--|
 A|---0-5--5---3--3-3---0--1-1---3--3-3-0-5--5---3--3-3---0--1-1---3--3-3--|
 D|---0---------------------------------0----------------------------------|

[D] [Bb] [D5] [D] [Bb] 
[Bb] [C] [D] [F] [G] [D] [Bb] [C] [D] [F] [G] [A]  
 
 E|---1---3---5------8----10---5------1---3---5------8----10---0-----------|
 B|---3---5---7------10---12---7------3---5---7------10---12---2-----------|
 G|---3---5---7------10---12---7------3---5---7------10---12---2-----------|
 D|---3---5---7------10---12---7------3---5---7------10---12---2-----------|
 A|---1---3---5------8----10---5------1---3---5------8----10---0-----------|
 D|------------------------------------------------------------------------|

 
 E|---------5---------------5----------------5-------------1-3-1---1-------|
 B|-------6---6---6-------6---6---6------5-6---6-5-6-----3-------5---------|
 G|-----7-------7-------9-------9------------------------------------------|
 D|---7---------------7---------------5---------------3--------------------|
 A|------------------------------------------------------------------------|
 D|------------------------------------------------------------------------|
 E|---------5---------------5----------------5-------------1-3-1---1-------|
 B|-------6---6---6-------6---6---6------5-6---6-5-6-----3-------5---------|
 G|-----7-------7-------9-------9------------------------------------------|
 D|---7---------------7---------------5---------------3--------------------|
 A|------------------------------------------------------------------------|
 D|------------------------------------------------------------------------|
 E|---------5---------------5----------------5-------------1-3-1---1-------|
 B|-------6---6---6-------6---6---6------5-6---6-5-6-----3-------5---------|
 G|-----7-------7-------9-------9------------------------------------------|
 D|---7---------------7---------------5---------------3--------------------|
 A|------------------------------------------------------------------------|
 D|------------------------------------------------------------------------|
 E|---------5---------------5----------------5-------------1-3-1---1-------|
 B|-------6---6---6-------6---6---6------5-6---6-5-6-----3-------5---------|
 G|-----7-------7-------9-------9------------------------------------------|
 D|---7---------------7---------------5---------------3--------------------|
 A|------------------------------------------------------------------------|
 D|------------------------------------------------------------------------|
 E|---------5---------------5----------------5-------------1-3-1---1-------|
 B|-------6---6---6-------6---6---6------5-6---6-5-6-----3-------5---------|
 G|-----7-------7-------9-------9------------------------------------------|
 D|---7---------------7---------------5---------------3--------------------|
 A|------------------------------------------------------------------------|
 D|------------------------------------------------------------------------|
 E|---------5---------------5----------------5-------------1-3-1---1-------|
 B|-------6---6---6-------6---6---6------5-6---6-5-6-----3-------5---------|
 G|-----7-------7-------9-------9------------------------------------------|
 D|---7---------------7---------------5---------------3--------------------|
 A|------------------------------------------------------------------------|
 D|------------------------------------------------------------------------|
 E|---------5---------------5----------------5-------------1-3-1---1-------|
 B|-------6---6---6-------6---6---6------5-6---6-5-6-----3-------5---------|
 G|-----7-------7-------9-------9------------------------------------------|
 D|---7---------------7---------------5---------------3--------------------|
 A|------------------------------------------------------------------------|
 D|------------------------------------------------------------------------|

 
 E|--------------------------------------------------------------------------------|
 B|---10----10---11----11---10h11p10-------------------10h11p10-10-----------------|
 G|------10---------12---------------12---12h14p12-----------------12h14p12--------|
 D|------------------------------------------------15-----------------------15-14--|
 A|--------------------------------------------------------------------------------|
 D|--------------------------------------------------------------------------------|

{ If anyone wants to figure this out and post in a comment, feel free
to, it's kind of sloppy }\/\/\/
 
 E|---5----5\3--5---5/6--5--3--5---------5----5\3--5---5/6--5--3--5---17----|
 B|---5----5\3--5---5/6--5--3--5---10----5----5\3--5---5/6--5--3--5------15-|
 G|---7----7\5--7---7/8--7--5--7------7--7----7\5--7---7/8--7--5--7---------|
 D|---7----7\5--7---7/8--7--5--7---------7----7\5--7---7/8--7--5--7---------|
 A|---5----5\3--5---5/6--5--3--5---------5----5\3--5---5/6--5--3--5---------|
 D|-------------------------------------------------------------------------|
 E|---------10---------15-13--15-13--10-10-10-10--10-13--12p10----10p8-----|
 B|---10h12----10----------------------------------------------13------10--|
 G|------------------------------------------------------------------------|
 D|----------------12------------------------------------------------------|
 A|------------------------------------------------------------------------|
 D|------------------------------------------------------------------------|
 E|-------------------------------15----15-15-------17--17-15p13----15p13--|
 B|---10--8p6---6h8-8~~-6-8-13-15----13-------13-13--------------15--------|
 G|-----------7------------------------------------------------------------|
 D|------------------------------------------------------------------------|
 A|------------------------------------------------------------------------|
 D|------------------------------------------------------------------------|
 E|------------------------------------------------------------------------|
 B|---15-13~~~-------------------------------------------------------------|
 G|------------12p10-12/14-17--14p12-14p12---------------------------------|
 D|----------------------------------------15p12-15p12---------------------|
 A|----------------------------------------------------15p12-10-8-8/10-8~~-|
 D|------------------------------------------------------------------------|
 E|---10-10-10-10-10-10-10-10-10-10-10-10-10-10-10-10--8-8-8-8-8-8-8-8-----|
 B|---10-10-10-10-10-10-10-10-10-10-10-10-10-10-10-10--8-8-8-8-8-8-8-8-----|
 G|------------------------------------------------------------------------|
 D|------------------------------------------------------------------------|
 A|------------------------------------------------------------------------|
 D|------------------------------------------------------------------------|
 E|---6-6-6-6-6-6-6-6/10-10-10-10-10-10-10-10-10-10-10-10-10-10-10-10--8-8-|
 B|---6-6-6-6-6-6-6-6/10-10-10-10-10-10-10-10-10-10-10-10-10-10-10-10--8-8-|
 G|------------------------------------------------------------------------|
 D|------------------------------------------------------------------------|
 A|------------------------------------------------------------------------|
 D|------------------------------------------------------------------------|
 E|---8-8-8-8-8-8--6-6-6-6-6-6-6-6--8/10-10-10-10\8--8/10-10-10-10\8-------|
 B|---8-8-8-8-8-8--6-6-6-6-6-6-6-6--8/10-10-10-10\8--8/10-10-10-10\8-------|
 G|------------------------------------------------------------------------|
 D|------------------------------------------------------------------------|
 A|------------------------------------------------------------------------|
 D|-------------------------------------------------------------------0-0-0|
 E|------------------------------------------------8/10-10-10-10\8--10p8---|
 B|---------------------------------6-6h8-6-8-6~~~-8/10-10-10-10\8---------|
 G|-----------------------------5h7----------------------------------------|
 D|------------------------------------------------------------------------|
 A|------------------------------------------------------------------------|
 D|---0-0-0-0-0-3-0-3-3/5--5-7---------------------------------------------|
 E|---10p8-10p8-10p8-10~~~--8/10-10-10-10\8--8/10-10-10-10\8--13p10----10p8|
 B|-------------------------8/10-10-10-10\8--8/10-10-10-10\8--------13-----|
 G|------------------------------------------------------------------------|
 D|------------------------------------------------------------------------|
 A|------------------------------------------------------------------------|
 D|------------------------------------------------------------------------|
 E|-------------------------------------8/10-10-10-10\8--8/10-10-10-10\8---|
 B|---10-10p8-10p8-8p6-6h8p6---6-8-8p6--8/10-10-10-10\8--8/10-10-10-10\8---|
 G|--------------------------7---------------------------------------------|
 D|------------------------------------------------------------------------|
 A|------------------------------------------------------------------------|
 D|------------------------------------------------------------------------|
 E|---17p15-17p15-17p15-17p15-17p15--15h17---------------------------------|
 B|---------------------------------------------2-2-2-2-2-2------3-3-3-3-3-|
 G|---------------------------------------------2-2-2-2-2-2------3-3-3-3-3-|
 D|-------------------------------------------2-2-2-2-2-2-2----3-3-3-3-3-3-|
 A|-----------------------------------------0---0-0-0-0-0-0--1---1-1-1-1-1-|
 D|------------------------------------------------------------------------|
 E|------------------------------------------------------------------------|
 B|---3-3-3-3-3-3-3-3--3/5--5-5-5-5-5-5------------------------------------|
 G|---3-3-3-3-3-3-3-3--3/5--5-5-5-5-5-5------------------------------------|
 D|---3-3-3-3-3-3-3-3--3/5--5-5-5-5-5-5------------------------------------|
 A|---1-1-1-1-1-1-1-1--1/3--3-3-3-3-3-3------------------------------------|
 D|------------------------------------------------------------------------|

CHORUS
[D5Dsus4] [C] [Csus2] [G#/A] [C] [Csus2] [Dsus4] [C] [Csus2] [G#/A] [C] [Csus2]  
 
 E|-----5--5---3--3-3------1-1---3--3-3---5--5---3--3-3------1-1---3--3-3--|
 B|-----8--7---5--3-3---1--3-3---5--3-3---8--7---5--3-3---1--3-3---5--3-3--|
 G|-----7--7---5--5-5---1--3-3---5--5-5---7--7---5--5-5---1--3-3---5--5-5--|
 D|---0-7--7---5--5-5---1--3-3---5--5-5-0-7--7---5--5-5---1--3-3---5--5-5--|
 A|---0-5--5---3--3-3---0--1-1---3--3-3-0-5--5---3--3-3---0--1-1---3--3-3--|
 D|---0---------------------------------0----------------------------------|

[D] [Bb] [D5] [D] [Bb] 
[D5Dsus4] [C] [Csus2] [G#/A] [C] [Csus2] [Dsus4] [C] [Csus2] [G#/A] [C] [Csus2]  
 
 E|-----5--5---3--3-3------1-1---3--3-3---5--5---3--3-3------1-1---3--3-3--|
 B|-----8--7---5--3-3---1--3-3---5--3-3---8--7---5--3-3---1--3-3---5--3-3--|
 G|-----7--7---5--5-5---1--3-3---5--5-5---7--7---5--5-5---1--3-3---5--5-5--|
 D|---0-7--7---5--5-5---1--3-3---5--5-5-0-7--7---5--5-5---1--3-3---5--5-5--|
 A|---0-5--5---3--3-3---0--1-1---3--3-3-0-5--5---3--3-3---0--1-1---3--3-3--|
 D|---0---------------------------------0----------------------------------|

[D] [Bb] [D5] [D] [Bb] 
OUTRO CHORUS/SOLO 2 ( Working on it right now, I'll update this as soon as I
finish it, bout done though!! )
****************************************************************************
Lyrics*
****************************************************************************
In an earthquake, it made space where I fell into you. In the starlight,
you look so bright, you eclipsed the moon. On a highway just today, that's
where I saw you. There was music from a distance burning through.
She's here to rescue me, clear my mind and set me free. If it's dark, She
still shines, a masterpiece made by design. She's here to rescue me, stain
my mind with make believe. When it's dark, She still shines, She's my lady
so devine. Lady so devine, come and change my mind, lady so devine.
When the waves break and the souls take refuge from the night. On a
mountian, there's a story told a thousand times of a garden and a bed there
made to rest our eyes. There's a comfort to a softness that will not be
denied
She's here to rescue me, clear my mind and set me free. If it's dark, She
still shines, a masterpiece made by design. She's here to rescue me, stain
my mind with make believe. When it's dark, She still shines, She's my lady
so devine. Lady so devine, come and change my mind, lady so devine.
In midnight sun, she saves me from what I have done. In midnight sun, she
saves me from what I have done, what I have done.
She's here to rescue me, clear my mind and set me free. If it's dark, She
still shines, a masterpiece made by design. She's here to rescue me, stain
my mind with make believe. When it's dark, She still shines, She's my lady
so devine.
Devine, devine, she's my lady so devine. Lady so devine, come
and change my mind. Lady so devine
****************************************************************************
[()()()()()()()-()((((((((((((((((((((((((((((((((((((((((((((((((((((((((((]()Guitar Legend())))))))))))))))))))))))))))))))))))))))))))))))))))))))))))
[()()()()()()()-()((((((((((((((((((((((((((((((((((((((((((((((((((((((((((]  
 
 h ------------Hammer-On
 p ------------Pull-Off
 b ------------Bend
 pb -----------Pre-Bend
 r ------------Bend Release ( if there is no number after r,

release immediately )
 
 / ------------Slide Into
 \ ------------Slide Out Of
 s ------------Legato Slide
 S ------------Shift Slide
 - ------------Natural Harmonic
 [n] ----------Artifitial Harmonic
 n[n] ---------Tapped Harmonic
 ~ ------------Vibrato
 tr -----------Trill
 T ------------Tap
 TR -----------Trem. Picking
 PM -----------Palm Muting
 \n/ ----------Tremolo Bar Dip; n - Amount to Dip
 \n -----------Tremolo Bar Down
 n/ -----------Tremolo Bar Up
 /n\ ----------Tremolo Bar Inverted Dip
 = ------------Hold Bend; Also Acts As Connecting Devise 

For Hammer-Ons/Pull-Offs
 
 < ------------Volume Swell Louder
 > ------------Volume Swell Softer
 x ------------Muted Slash
 o ------------Single Note Slash

<
CHORD DIAGRAMS
Bb* C* D* F* G* D5* Dsus4* Csus2*
 
 E|---|---1---|---3---|---5---|---8----|---10---|-------|---5---|---3---|
 B|---|---3---|---5---|---7---|---10---|---12---|-------|---8---|---3---|
 G|---|---3---|---5---|---7---|---10---|---12---|-------|---7---|---5---|
 D|---|---3---|---5---|---7---|---10---|---12---|---0---|---7---|---5---|
 A|---|---1---|---3---|---5---|---8----|---10---|---0---|---5---|---3---|
 D|---|-------|-------|-------|--------|--------|---0---|-------|-------|

G#/A*
 
 E|---|-------|---------------------------------------------------------|
 B|---|---1---|---------------------------------------------------------|
 G|---|---1---|---------------------------------------------------------|
 D|---|---1---|---------------------------------------------------------|
 A|---|---0---|---------------------------------------------------------|
 D|---|-------|---------------------------------------------------------|

[+++++++++++++++++++++++++++++++++++++++++++++++++++++++++++++++++++++++++++]NOTE: How old-school sound'in is this. This sounds like something Led
Zeppelin would make up, only better. Probably the best Shinedown
song, guitar-wise. I'm about 95% done with that solo. But man, is
it tough. It's probably the toughest transcription I've ever done.
And probably the hardest thing to play. Anyway, listen very closely
to the chord changes in the chorus, it's very tricky. Very good song
from a very good cd. I really want it to go platinum, so I"m asking
please get it. It's by far the best cd in my cd case ( and I have
some good cds ). Anyway, pretty easy, besides the chord changes in
the chorus, so LISTEN CLOSELY AND DON'T RATE THIS 1 STAR BECAUSE
YOU DIDN"T HEAR GOOD ENOUGH. Speaking of 1 star, their is currently
a tab beater, who keeps rateing my hard worked tabs 1 star. Some
of them may not be just perfect, but their not 1 star, that just
means that a tab is completely off. So if you can hear me, please
stop rateing them 1 star, I work hard in means to provide the
Shinedown fans in need of their songs good tabs, and their not
gonna find that in a 1 star rateing are they. So please quit.
I would never do that to anyones tabs that didn't deserve it.
Anyway, have fun playing, you Shine-Aziods. Well... ...ENJOY!!!
[-Asa] 

Important: The song above is NOT stored on the Chordie server. The original song is hosted at www.guitartabs.cc. Chordie works as a search engine and provides on-the-fly formatting. Chordie does not index songs against artists'/composers' will. To remove this song please click here.

Text color:
Chord color:
Chord grids: 
Font size:    
Page size: 

A Bb C Csus2 D D5 Dsus4 F G
Rate #0 of 2 versions

Login - add to songbook

SHARE PAGE  




You need to log in to post comments