Guitar Tabs, Chords and Lyrics
Server problems seems to be fixed. Chordie has been experiencing problems with songs disappearing. These issues now seems to be fixed, but still verifying the fix. If you find anything strange, please email admin@chordie.com.


Trade Yourself In   Shinedown

 
 Tuning: Drop-D, down 1/2 step; low to high: Db - Ab - Db - Gb - Bb - Eb

 


 =======================================================================================


 


 

 
 ---------------------------------------------------------------------------------------
 ---------------------------------------------------------------------------------------
 ---------------------------------------------------------------------------------------
 ---------------------------------------------------------------------------------------
 ---------------------------------------------------------------------------------------

 


 


 =======================================================================================


 INTRO


 =======================================================================================


 0:00-


 


 Dm*


 Gtr. 1 (dist.)


 

 
 Eb|-----------------------------------|-----------------------------|
 Bb|-----------------------------------|-----------------------------|
 Gb|-----------------------------------|-----------------------------|
 Db|-----------3-3-3-3-2-2-2-2---------|-----3-3-3-3-2-2-2-2---------|
 Ab|---------------------------3-3-3-3-|---------------------3-3-3-3-|
 Db|---0--3)---------------------------|-0---------------------------|

 


 T.H. - *


 


 E5(add#4)* D5* C5* D5*


 

 
 Eb|-------------------------------|----------------------|---------------------------|
 Bb|-------------------------------|----------------------|---------------------------|
 Gb|-------------------------------|----3-3-----3-3-----3-|---------------------------|
 Db|-------3-3-3-3-2-2-----5-5-----|----------------------|-7-----5-7-----2h3p2p0-----|
 Ab|-------------------3-3-----3-3-|-2-------2-------2----|-5-----3-5-------------3p0-|
 Db|---0---------------------------|-2-------2-------2----|---------------------------|

 


 


 D5* C5* D5* F5* D5* C5* D5* G/B* Bb5*


 

 
 Eb|-------------------------|---------------------------|---------------------|
 Bb|-------------------------|---------------------------|-------0-------------|
 Gb|-------------------------|---------------------------|-------0-------------|
 Db|---7-----5-7-------------|-7-----5-7-----2h3p2p0-----|-------------------3-|
 Ab|---5-----3-5-------3-----|-5-----3-5-------------3p0-|-2-----------1-------|
 Db|--------------x\~\-3-----|---------------------------|---------------------|
 P.S. - * let ring---} -------}

 


 


 =======================================================================================


 VERSE 1


 =======================================================================================


 0:19-


 


 D5* C5* D5* D5* C5* D5*


 

 
 Eb|-----------------------------|--------------------------|
 Bb|-----------------------------|--------------------------|
 Gb|-----------------------------|--------------------------|
 Db|---7-----5-7-----2h3p2p0-----|-7-----5-7-----3b(1)---r--|
 Ab|---5-----3-5-------------3p0-|-5-----3-5----------------|
 Db|-----------------------------|--------------------------|

 


 1. Deal with me...


 


 D5* C5* D5* G/B* Bb5*


 

 
 Eb|-----------------------------|---------------------|
 Bb|-----------------------------|-------0-------------|
 Gb|-----------------------------|-------0-------------|
 Db|---7-----5-7-----2h3p2p0-----|-------------------3-|
 Ab|---5-----3-5-------------3p0-|-2-----------1-------|
 Db|-----------------------------|---------------------|
 let ring---} -------}

 


 


 D5* C5* D5* D5* C5* D5* F5*


 

 
 Eb|-----------------------------|-----------------------|
 Bb|-----------------------------|-----------------------|
 Gb|-----------------------------|-----------------------|
 Db|---7-----5-7-----2h3p2p0-----|-7-----5-7-------------|
 Ab|---5-----3-5-------------3p0-|-5-----3-5-------3-----|
 Db|-----------------------------|------------x\~\-3-----|

 


 P.S. - *


 


 D5* C5* D5* G/B* Bb5*


 

 
 Eb|-----------------------------|---------------------|
 Bb|-----------------------------|-------0-------------|
 Gb|-----------------------------|-------0-------------|
 Db|---7-----5-7-----2h3p2p0-----|-------------------3-|
 Ab|---5-----3-5-------------3p0-|-2-----------1-------|
 Db|-----------------------------|---------------------|
 let ring---} -------}

 


 


 =======================================================================================


 PRE-CHORUS


 =======================================================================================


 0:39-


 


 F5* G5* Bb5* C5* F5* G5* Bb5*


 

 
 Eb|-----------------|-----------------|-----------------|---------------------|
 Bb|-----------------|-----------------|-----------------|---------------------|
 Gb|-----------------|-----------------|-----------------|---------------------|
 Db|-----------------|---3---3---5---5-|-----------------|-------3---3---3---3-|
 Ab|---3---3---5---5-|---1---1---3---3-|---3---3---5---5-|-------1---1---1---1-|
 Db|---3---3---5---5-|-----------------|---3---3---5---5-|-0--0----------------|

 


 |Gtr. 2 (dist.) P.M.-}


 

 
 Eb|-0---------------|-1-----0---------|-0---------------|-1---------1-------0-|
 Bb|-------3---------|-----------2-----|-------3---------|----3--------------6-|
 Gb|---2-------2-----|---2-------------|---2-------2-----|-------2-------------|
 Db|-----------------|-----------------|-----------------|---------------------|
 Ab|-----------------|-----------------|-----------------|---------------------|
 Db|-----------------|-----------------|-----------------|---------------------|

 


 I don't think...


 


 C5*


 

 
 Eb|---------------------------|
 Bb|---------------------------|
 Gb|---------------------------|
 Db|-------5--5--5--5--5--5--5-|
 Ab|---x---3--3--3--3--3--3--3-|
 Db|---x-----------------------|

 


 |


 

 
 Eb|---------------------------|
 Bb|---------------------------|
 Gb|---------------------------|
 Db|---3/5-5h7---7/10--10/12---|
 Ab|---------------------------|
 Db|---------------------------|

 


 


 =======================================================================================


 CHORUS


 =======================================================================================


 0:51-


 


 D5* Fsus2* Bb5* F/A*


 

 
 Eb|--------------------------------------|----------------------------------------|
 Bb|--------------------------------------|----------------------------------------|
 Gb|---7-7-7-7-7-7-7--10-10-10--10--10-10-|-10-10-10-10-10--10-10-10-10-10--9-9-9--|
 Db|---x-x-x-x-x-x-x---x--x--x---x---x--x-|--x--x--x--x--x---x--x--x--x--x--x-x-x--|
 Ab|---5-5-5-5-5-5-5---8--8--8---8---8--8-|--8--8--8--8--8---8--8--8--8--8--7-7-7--|
 Db|--------------------------------------|----------------------------------------|

 


 |


 

 
 Eb|--------------------------------------|----------------------------------------|
 Bb|--------------------------------------|----------------------------------------|
 Gb|--------------------5---5--5--5---5---|----------------------------------------|
 Db|--------------------3---3--3--3---3---|-8--8-8-8--8-8-10-10-10-10-10--10-10----|
 Ab|---0---0--0--0---0--3---3--3--3---3///|/8--8-8-8--8-8--8--8--8--8--8---8--8----|
 Db|---0---0--0--0---0--3---3--3--3---3///|/8--8-8-8--8-8--7--7--7--7--7---7--7----|

 


 Trade yourself in...


 


 D5* Fsus2* E(b5)*


 

 
 Eb|--------------------------------|--------------------------------|
 Bb|--------------------------------|--------------------------------|
 Gb|---7--7-7-7-7-7-7-5--5-5-5-5-5--|--3---3-3-3-3-3---3-3-3-3-3--3--|
 Db|---x--x-x-x-x-x-x-x--x-x-x-x-x--|--x---x-x-x-x-x---x-x-x-x-x--x--|
 Ab|---5--5-5-5-5-5-5-3--3-3-3-3-3--|--1---1-1-1-1-1---1-1-1-1-1--1--|
 Db|--------------------------------|--------------------------------|

 


 |


 

 
 Eb|--------------------------------|--------------------------------|
 Bb|--------------------------------|--------------------------------|
 Gb|-------------------5--5-5-5-5-5-|--------------------------------|
 Db|---5--5-5-5-5-x-x--3--3-3-3-3-3-|--------------------------------|
 Ab|---5--5-5-5-5-x-x--3--3-3-3-3-3-|-1--1-1-1---1-1-1---1-1-1-1-1-1-|
 Db|---5--5-5-5-5-x-x--3--3-3-3-3-3-|-2--2-2-2---2-2-2---2-2-2-2-2-2-|

 


 


 D5* Fsus2* Bb5* F/A*


 

 
 Eb|--------------------------------------|----------------------------------------|
 Bb|--------------------------------------|----------------------------------------|
 Gb|---7-7-7-7-7-7-7--10-10-10--10--10-10-|-10-10-10-10-10--10-10-10-10-10--9-9-9--|
 Db|---x-x-x-x-x-x-x---x--x--x---x---x--x-|--x--x--x--x--x---x--x--x--x--x--x-x-x--|
 Ab|---5-5-5-5-5-5-5---8--8--8---8---8--8-|--8--8--8--8--8---8--8--8--8--8--7-7-7--|
 Db|--------------------------------------|----------------------------------------|

 


 |


 

 
 Eb|--------------------------------------|----------------------------------------|
 Bb|--------------------------------------|----------------------------------------|
 Gb|--------------------5---5--5--5---5---|----------------------------------------|
 Db|--------------------5---5--5--5---5---|---------------10----10----10-----------|
 Ab|---0---0--0--0---0--3---3--3--3---3///|/8--8---8----8--8-----8-----8---8--5----|
 Db|---0---0--0--0---0--3---3--3--3---3///|/8--8---8----8--7-----7-----7---7--5----|

 


 


 D5* Fsus2* E(b5)*


 

 
 Eb|--------------------------------|--------------------------------|
 Bb|--------------------------------|--------------------------------|
 Gb|---7--7-7-7-7-7-7-5--5-5-5-5-5--|--3---3-3-3-3-3---3-3-3-3-3--3--|
 Db|---x--x-x-x-x-x-x-x--x-x-x-x-x--|--x---x-x-x-x-x---x-x-x-x-x--x--|
 Ab|---5--5-5-5-5-5-5-3--3-3-3-3-3--|--1---1-1-1-1-1---1-1-1-1-1--1--|
 Db|--------------------------------|--------------------------------|

 


 |


 

 
 Eb|--------------------------------|--------------------------------|
 Bb|--------------------------------|--------------------------------|
 Gb|-------------------5--5-5-5-5-5-|--------------------------------|
 Db|---5--5-5-5-5-x-x--3--3-3-3-3-3-|--------------------------------|
 Ab|---5--5-5-5-5-x-x--3--3-3-3-3-3-|-1--1-1-1---1-1-1---1-1-1-1-1-1-|
 Db|---5--5-5-5-5-x-x--3--3-3-3-3-3-|-2--2-2-2---2-2-2---2-2-2-2-2-2-|

 


 |Gtr. 3 (dist.)


 

 
 Eb|--------------------------------|--------------------------------|
 Bb|--------------------------------|--------------------------8-----|
 Gb|--------------------------------|-7~~~~~~--9-------10------------|
 Db|------------------7------10-----|--------------------------------|
 Ab|---8------10--------------------|--------------------------------|
 Db|--------------------------------|--------------------------------|

 


 


 =======================================================================================


 INTRERLUDE


 =======================================================================================


 1:10-


 


 D5* C5* D5* D5* C5* D5* F5*


 

 
 Eb|-----------------------------|-----------------------|
 Bb|-----------------------------|-----------------------|
 Gb|-----------------------------|-----------------------|
 Db|---7-----5-7-----2h3p2p0-----|-7-----5-7-------------|
 Ab|---5-----3-5-------------3p0-|-5-----3-5-------3-----|
 Db|-----------------------------|------------x\~\-3-----|

 


 Ahhhh... P.S. - *


 


 D5* C5* D5* G/B* Bb5*


 

 
 Eb|-----------------------------|---------------------|
 Bb|-----------------------------|-------0-------------|
 Gb|-----------------------------|-------0-------------|
 Db|---7-----5-7-----2h3p2p0-----|-------------------3-|
 Ab|---5-----3-5-------------3p0-|-2-----------1-------|
 Db|-----------------------------|---------------------|
 let ring---} -------}

 


 


 =======================================================================================


 VERSE 2


 =======================================================================================


 1:20-


 


 D5* C5* D5* D5* C5* D5*


 

 
 Eb|-----------------------------|--------------------------|
 Bb|-----------------------------|--------------------------|
 Gb|-----------------------------|--------------------------|
 Db|---7-----5-7-----2h3p2p0-----|-7-----5-7-----3b(1)---r--|
 Ab|---5-----3-5-------------3p0-|-5-----3-5----------------|
 Db|-----------------------------|--------------------------|

 


 2. You see me...


 


 D5* C5* D5* G/B* Bb5*


 

 
 Eb|-----------------------------|---------------------|
 Bb|-----------------------------|-------0-------------|
 Gb|-----------------------------|-------0-------------|
 Db|---7-----5-7-----2h3p2p0-----|-------------------3-|
 Ab|---5-----3-5-------------3p0-|-2-----------1-------|
 Db|-----------------------------|---------------------|
 let ring---} -------}

 


 


 D5* C5* D5* D5* C5* D5* F5*


 

 
 Eb|-----------------------------|-----------------------|
 Bb|-----------------------------|-----------------------|
 Gb|-----------------------------|-----------------------|
 Db|---7-----5-7-----2h3p2p0-----|-7-----5-7-------------|
 Ab|---5-----3-5-------------3p0-|-5-----3-5-------3-----|
 Db|-----------------------------|------------x\~\-3-----|

 


 P.S. - *


 


 D5* C5* D5* G/B* Bb5*


 

 
 Eb|-----------------------------|---------------------|
 Bb|-----------------------------|-------0-------------|
 Gb|-----------------------------|-------0-------------|
 Db|---7-----5-7-----2h3p2p0-----|-------------------3-|
 Ab|---5-----3-5-------------3p0-|-2-----------1-------|
 Db|-----------------------------|---------------------|
 let ring---} -------}

 


 


 =======================================================================================


 PRE-CHORUS


 =======================================================================================


 1:39-


 


 F5* G5* Bb5* C5* F5* G5* Bb5*


 

 
 Eb|-----------------|-----------------|-----------------|---------------------|
 Bb|-----------------|-----------------|-----------------|---------------------|
 Gb|-----------------|-----------------|-----------------|---------------------|
 Db|-----------------|---3---3---5---5-|-----------------|-------3---3---3---3-|
 Ab|---3---3---5---5-|---1---1---3---3-|---3---3---5---5-|-------1---1---1---1-|
 Db|---3---3---5---5-|-----------------|---3---3---5---5-|-0--0----------------|

 


 |Gtr. 2 (dist.) P.M.-}


 

 
 Eb|-0---------------|-1-----0---------|-0---------------|-1---------1-------0-|
 Bb|-------3---------|-----------2-----|-------3---------|----3--------------6-|
 Gb|---2-------2-----|---2-------------|---2-------2-----|-------2-------------|
 Db|-----------------|-----------------|-----------------|---------------------|
 Ab|-----------------|-----------------|-----------------|---------------------|
 Db|-----------------|-----------------|-----------------|---------------------|

 


 I don't think...


 


 C5*


 

 
 Eb|---------------------------|
 Bb|---------------------------|
 Gb|---------------------------|
 Db|-------5--5--5--5--5--5--5-|
 Ab|---x---3--3--3--3--3--3--3-|
 Db|---x-----------------------|

 


 |


 

 
 Eb|---------------------------|
 Bb|---------------------------|
 Gb|---------------------------|
 Db|---3/5-5h7---7/10--10/12---|
 Ab|---------------------------|
 Db|---------------------------|

 


 


 =======================================================================================


 CHORUS


 =======================================================================================


 1:51-


 


 D5* Fsus2* Bb5* F/A*


 

 
 Eb|--------------------------------------|----------------------------------------|
 Bb|--------------------------------------|----------------------------------------|
 Gb|---7-7-7-7-7-7-7--10-10-10--10--10-10-|-10-10-10-10-10--10-10-10-10-10--9-9-9--|
 Db|---x-x-x-x-x-x-x---x--x--x---x---x--x-|--x--x--x--x--x---x--x--x--x--x--x-x-x--|
 Ab|---5-5-5-5-5-5-5---8--8--8---8---8--8-|--8--8--8--8--8---8--8--8--8--8--7-7-7--|
 Db|--------------------------------------|----------------------------------------|

 


 |


 

 
 Eb|--------------------------------------|----------------------------------------|
 Bb|--------------------------------------|----------------------------------------|
 Gb|--------------------5---5--5--5---5---|----------------------------------------|
 Db|--------------------3---3--3--3---3---|-8--8-8-8--8-8-10-10-10-10-10--10-10----|
 Ab|---0---0--0--0---0--3---3--3--3---3///|/8--8-8-8--8-8--8--8--8--8--8---8--8----|
 Db|---0---0--0--0---0--3---3--3--3---3///|/8--8-8-8--8-8--7--7--7--7--7---7--7----|

 


 |Gtr. 4 (dist.) \/ let ring throughout \/


 

 
 Eb|--------------------------------------|----------------------------------------|
 Bb|------------3-------------3-----------|-----------3----6-----6-----------------|
 Gb|--------2-------2------5--------------|----------------x-----x-----------------|
 Db|---0---------------3------------------|-----3----------3-----3-----------------|
 Ab|--------------------------------------|-1--------------------------------------|
 Db|--------------------------------------|----------------------------------------|

 


 Trade yourself in...


 


 D5* Fsus2* E(b5)*


 

 
 Eb|--------------------------------|--------------------------------|
 Bb|--------------------------------|--------------------------------|
 Gb|---7--7-7-7-7-7-7-5--5-5-5-5-5--|--3---3-3-3-3-3---3-3-3-3-3--3--|
 Db|---x--x-x-x-x-x-x-x--x-x-x-x-x--|--x---x-x-x-x-x---x-x-x-x-x--x--|
 Ab|---5--5-5-5-5-5-5-3--3-3-3-3-3--|--1---1-1-1-1-1---1-1-1-1-1--1--|
 Db|--------------------------------|--------------------------------|

 


 |


 

 
 Eb|--------------------------------|--------------------------------|
 Bb|--------------------------------|--------------------------------|
 Gb|-------------------5--5-5-5-5-5-|--------------------------------|
 Db|---5--5-5-5-5-x-x--3--3-3-3-3-3-|--------------------------------|
 Ab|---5--5-5-5-5-x-x--3--3-3-3-3-3-|-1--1-1-1---1-1-1---1-1-1-1-1-1-|
 Db|---5--5-5-5-5-x-x--3--3-3-3-3-3-|-2--2-2-2---2-2-2---2-2-2-2-2-2-|

 


 |


 

 
 Eb|--------------------------------|--------------------------------|
 Bb|----------7---------------5-----|-------------2b(1/2)------------|
 Gb|---5---------------3------------|-------3------------------------|
 Db|--------------------------------|-2------------------------------|
 Ab|--------------------------------|--------------------------------|
 Db|--------------------------------|--------------------------------|

 


 


 D5* Fsus2* Bb5* F/A*


 

 
 Eb|--------------------------------------|----------------------------------------|
 Bb|--------------------------------------|----------------------------------------|
 Gb|---7-7-7-7-7-7-7--10-10-10--10--10-10-|-10-10-10-10-10--10-10-10-10-10--9-9-9--|
 Db|---x-x-x-x-x-x-x---x--x--x---x---x--x-|--x--x--x--x--x---x--x--x--x--x--x-x-x--|
 Ab|---5-5-5-5-5-5-5---8--8--8---8---8--8-|--8--8--8--8--8---8--8--8--8--8--7-7-7--|
 Db|--------------------------------------|----------------------------------------|

 


 |


 

 
 Eb|--------------------------------------|----------------------------------------|
 Bb|--------------------------------------|----------------------------------------|
 Gb|--------------------5---5--5--5---5---|----------------------------------------|
 Db|--------------------5---5--5--5---5---|---------------10----10----10-----------|
 Ab|---0---0--0--0---0--3---3--3--3---3///|/8--8---8----8--8-----8-----8---8--5----|
 Db|---0---0--0--0---0--3---3--3--3---3///|/8--8---8----8--7-----7-----7---7--5----|

 


 |


 

 
 Eb|--------------------------------------|----------------------------------------|
 Bb|------------3-------------3-----------|-3---5----------6-----------8-----------|
 Gb|--------2-------2------5--------------|-----x----------x-----------x-----------|
 Db|---0---------------3------------------|-----2----------3-----------5-----------|
 Ab|--------------------------------------|----------------------------------------|
 Db|--------------------------------------|----------------------------------------|

 


 


 D5* Fsus2* E(b5)*


 

 
 Eb|--------------------------------|--------------------------------|
 Bb|--------------------------------|--------------------------------|
 Gb|---7--7-7-7-7-7-7-5--5-5-5-5-5--|--3---3-3-3-3-3---3-3-3-3-3--3--|
 Db|---x--x-x-x-x-x-x-x--x-x-x-x-x--|--x---x-x-x-x-x---x-x-x-x-x--x--|
 Ab|---5--5-5-5-5-5-5-3--3-3-3-3-3--|--1---1-1-1-1-1---1-1-1-1-1--1--|
 Db|--------------------------------|--------------------------------|

 


 |


 

 
 Eb|--------------------------------|--------------------------------|
 Bb|--------------------------------|--------------------------------|
 Gb|-------------------5--5-5-5-5-5-|--------------------------------|
 Db|---5--5-5-5-5-x-x--3--3-3-3-3-3-|--------------------------------|
 Ab|---5--5-5-5-5-x-x--3--3-3-3-3-3-|-1--1-1-1---1-1-1---1-1-1-1-1-1-|
 Db|---5--5-5-5-5-x-x--3--3-3-3-3-3-|-2--2-2-2---2-2-2---2-2-2-2-2-2-|

 


 |


 

 
 Eb|--------------------------------|--------------------------------|
 Bb|---6------8------10------13-----|-11------------------------11\--|
 Gb|---x------x-------x-------x-----|--x-------------------------x---|
 Db|---3------5-------7------10-----|--8-------------------------8\--|
 Ab|--------------------------------|--------------------------------|
 Db|--------------------------------|--------------------------------|

 


 |Gtr. 3


 

 
 Eb|--------------------------------|--------------------------------|
 Bb|--------------------------------|--------------------------8-----|
 Gb|--------------------------------|-7~~~~~~--9-------10------------|
 Db|------------------7------10-----|--------------------------------|
 Ab|---8------10--------------------|--------------------------------|
 Db|--------------------------------|--------------------------------|

 


 


 =======================================================================================


 BRIDGE


 =======================================================================================


 2:11-


 


 Dm*


 

 
 Eb|----------------------------------------------|
 Bb|----------------------------------------------|
 Gb|----------------------------------------------|
 Db|-----------3--3--3--3--2--2--2--2-------------|
 Ab|-----------------------------------3--3--3--3-|
 Db|---0------------------------------------------|

 


 |


 

 
 Eb|----------------------------------------10--0-|
 Bb|---10b(1/2)r-(10)b(1/2)r--(10)~~~~~~-10-------|
 Gb|----------------------------------------------|
 Db|----------------------------------------------|
 Ab|----------------------------------------------|
 Db|----------------------------------------------|
 Eb|----------------------------------------------|
 Bb|----------------------------------------------|
 Gb|----------------------------------------------|
 Db|-----------3--3--3--3--2--2--2--2-------------|
 Ab|-----------------------------------3--3--3--3-|
 Db|---0------------------------------------------|

 


 |


 

 
 Eb|----------------------------------------------|
 Bb|----------------------------------------------|
 Gb|---9b(1/2)r-(9)b(1/2)r-(9)~~~~~~~~----(9)\----|
 Db|----------------------------------------------|
 Ab|----------------------------------------------|
 Db|----------------------------------------------|
 Eb|----------------------------------------------|
 Bb|----------------------------------------------|
 Gb|----------------------------------------------|
 Db|-----------3--3--3--3--2--2--2--2-------------|
 Ab|-----------------------------------3--3--3--3-|
 Db|---0------------------------------------------|

 


 |


 

 
 Eb|----------------------------------------------|
 Bb|----------------------------------------------|
 Gb|---2b(1/2)r-(2)b(1/2)r-(2)--------------------|
 Db|----------------------------------------------|
 Ab|----------------------------------------------|
 Db|----------------------------------------------|
 Eb|------------------------|
 Bb|------------------------|
 Gb|-------3-3----3-3-----3-|
 Db|------------------------| ---*REPEAT FROM START OF THE INTERLUDE*
 Ab|---2-------2------2-----|
 Db|---2-------2------2-----|

 


 |


 

 
 Eb|------------------------|
 Bb|------------------------|
 Gb|------------------------|
 Db|------------------------|
 Ab|------------------------|
 Db|------------------------|
 Eb|-------------------------------------------|-----------------------------------------|
 Bb|-------------------------------------------|-13~~~~~-(13)---12----10----10-----------|
 Gb|--------------------10~~~~~~~~~~-----(10)\-|-----------------------------------------|
 Db|---12--------(12)\-------------------------|-----------------------------------------|
 Ab|-------------------------------------------|-----------------------------------------|
 Db|-------------------------------------------|-----------------------------------------|

 


 | DigiTech Whammy Pedal ^^^


 

 
 Eb|-------------------------------------------|-----------------------------------------|
 Bb|-------------------------------------------|-----------------------------------------|
 Gb|---7-7-7-7-7-7-7-7-10-10-10-10-10-10-10-10-|-7-7-7-7-7-7-7-7-10-10-10-10-10-10-10-10-|
 Db|---x-x-x-x-x-x-x-x--x--x--x--x--x--x--x--x-|-x-x-x-x-x-x-x-x--x--x--x--x--x--x--x--x-|
 Ab|---5-5-5-5-5-5-5-5--8--8--8--8--8--8--8--8-|-5-5-5-5-5-5-5-5--8--8--8--8--8--8--8--8-|
 Db|-------------------------------------------|-----------------------------------------|
 Eb|----------------------------------------------------------|
 Bb|----------------------------------------------------------|
 Gb|---12b(1)-12h-r-(12)--10h12p10----------------------------|
 Db|-------------------------------12p10----10h12p10h12--10\--|
 Ab|-------------------------------------12-------------------|
 Db|----------------------------------------------------------|

 


 |


 

 
 Eb|----------------------------------------------------------|
 Bb|----------------------------------------------------------|
 Gb|---7--7--7--7--7--7--7--7--10--10--10--10--10--10--10--10-|
 Db|---x--x--x--x--x--x--x--x---x---x---x---x---x---x---x---x-|
 Ab|---5--5--5--5--5--5--5--5---8---8---8---8---8---8---8---8-|
 Db|----------------------------------------------------------|
 Eb|----------------------------------------------------------------|
 Bb|----------------------------------------------------------13-13-|--13b(1) {into chorus)
 Gb|-------10-12-12br(1)-(12)-10----10-12b(1)~~~~~~-(12)\-/14-------|
 Db|---/12-----------------------12---------------------------------|
 Ab|----------------------------------------------------------------|
 Db|----------------------------------------------------------------|

 


 |


 

 
 Eb|----------------------------------------------------------------|
 Bb|----------------------------------------------------------------|
 Gb|----------------3----3-------------3----3-------------3---------|
 Db|----------------------------------------------------------------|
 Ab|---2----------------------2----------------2--------------------|
 Db|---2----------------------2----------------2--------------------|

 


 


 =======================================================================================


 CHORUS


 =======================================================================================


 2:40-


 


 D5* Fsus2* Bb5* F/A*


 

 
 Eb|--------------------------------------|----------------------------------------|
 Bb|--------------------------------------|----------------------------------------|
 Gb|---7-7-7-7-7-7-7--10-10-10--10--10-10-|-10-10-10-10-10--10-10-10-10-10--9-9-9--|
 Db|---x-x-x-x-x-x-x---x--x--x---x---x--x-|--x--x--x--x--x---x--x--x--x--x--x-x-x--|
 Ab|---5-5-5-5-5-5-5---8--8--8---8---8--8-|--8--8--8--8--8---8--8--8--8--8--7-7-7--|
 Db|--------------------------------------|----------------------------------------|

 


 |


 

 
 Eb|--------------------------------------|----------------------------------------|
 Bb|--------------------------------------|----------------------------------------|
 Gb|--------------------5---5--5--5---5---|----------------------------------------|
 Db|--------------------3---3--3--3---3---|-8--8-8-8--8-8-10-10-10-10-10--10-10----|
 Ab|---0---0--0--0---0--3---3--3--3---3///|/8--8-8-8--8-8--8--8--8--8--8---8--8----|
 Db|---0---0--0--0---0--3---3--3--3---3///|/8--8-8-8--8-8--7--7--7--7--7---7--7----|

 


 |Gtr. 4 (dist.) \/ let ring throughout \/


 

 
 Eb|--------------------------------------|----------------------------------------|
 Bb|------------3-------------3-----------|-----------3----6-----6-----------------|
 Gb|--------2-------2------5--------------|----------------x-----x-----------------|
 Db|---0---------------3------------------|-----3----------3-----3-----------------|
 Ab|--------------------------------------|-1--------------------------------------|
 Db|--------------------------------------|----------------------------------------|

 


 Trade yourself in...


 


 D5* Fsus2* E(b5)*


 

 
 Eb|--------------------------------|--------------------------------|
 Bb|--------------------------------|--------------------------------|
 Gb|---7--7-7-7-7-7-7-5--5-5-5-5-5--|--3---3-3-3-3-3---3-3-3-3-3--3--|
 Db|---x--x-x-x-x-x-x-x--x-x-x-x-x--|--x---x-x-x-x-x---x-x-x-x-x--x--|
 Ab|---5--5-5-5-5-5-5-3--3-3-3-3-3--|--1---1-1-1-1-1---1-1-1-1-1--1--|
 Db|--------------------------------|--------------------------------|

 


 |


 

 
 Eb|--------------------------------|--6----6------6----6----6-6-6---|
 Bb|--------------------------------|--x----x------x----x----x-x-x---|
 Gb|--------------------------------|--3----3------3----3----3-3-x---|
 Db|---5--5-5-5-5-x-x--3--3-3-3-3-3-|--------------------------------|
 Ab|---5--5-5-5-5-x-x--3--3-3-3-3-3-|--------------------------------|
 Db|---5--5-5-5-5-x-x--3--3-3-3-3-3-|--------------------------------|

 


 |


 

 
 Eb|--------------------------------|--------------------------------|
 Bb|----------7---------------5-----|--------------------------------|
 Gb|---5---------------3------------|-----3-3-----3-3-------3-3-3----|
 Db|--------------------------------|--------------------------------|
 Ab|--------------------------------|-2--------2--------2------------|
 Db|--------------------------------|-2--------2--------2------------|

 


 


 D5* Fsus2* Bb5* F/A*


 

 
 Eb|--------------------------------------|----------------------------------------|
 Bb|--------------------------------------|----------------------------------------|
 Gb|---7-7-7-7-7-7-7--10-10-10--10--10-10-|-10-10-10-10-10--10-10-10-10-10--9-9-9--|
 Db|---x-x-x-x-x-x-x---x--x--x---x---x--x-|--x--x--x--x--x---x--x--x--x--x--x-x-x--|
 Ab|---5-5-5-5-5-5-5---8--8--8---8---8--8-|--8--8--8--8--8---8--8--8--8--8--7-7-7--|
 Db|--------------------------------------|----------------------------------------|

 


 |


 

 
 Eb|--------------------------------------|----------------------------------------|
 Bb|--------------------------------------|----------------------------------------|
 Gb|--------------------5---5--5--5---5---|----------------------------------------|
 Db|--------------------5---5--5--5---5---|---------------10----10----10-----------|
 Ab|---0---0--0--0---0--3---3--3--3---3///|/8--8---8----8--8-----8-----8---8--5----|
 Db|---0---0--0--0---0--3---3--3--3---3///|/8--8---8----8--7-----7-----7---7--5----|

 


 |


 

 
 Eb|--------------------------------------|----------------------------------------|
 Bb|------------3-------------3-----------|-3---5----------6-----------8-----------|
 Gb|--------2-------2------5--------------|-----x----------x-----------x-----------|
 Db|---0---------------3------------------|-----2----------3-----------5-----------|
 Ab|--------------------------------------|----------------------------------------|
 Db|--------------------------------------|----------------------------------------|

 


 


 D5* Fsus2* E(b5)*


 

 
 Eb|--------------------------------|--------------------------------|
 Bb|--------------------------------|--------------------------------|
 Gb|---7--7-7-7-7-7-7-5--5-5-5-5-5--|--3---3-3-3-3-3---3-3-3-3-3--3--|
 Db|---x--x-x-x-x-x-x-x--x-x-x-x-x--|--x---x-x-x-x-x---x-x-x-x-x--x--|
 Ab|---5--5-5-5-5-5-5-3--3-3-3-3-3--|--1---1-1-1-1-1---1-1-1-1-1--1--|
 Db|--------------------------------|--------------------------------|

 


 |


 

 
 Eb|--------------------------------|--------------------------------|
 Bb|--------------------------------|--------------------------------|
 Gb|-------------------5--5-5-5-5-5-|--------------------------------|
 Db|---5--5-5-5-5-x-x--3--3-3-3-3-3-|--------------------------------|
 Ab|---5--5-5-5-5-x-x--3--3-3-3-3-3-|-1--1-1-1---1-1-1---1-1-1-1-1-1-|
 Db|---5--5-5-5-5-x-x--3--3-3-3-3-3-|-2--2-2-2---2-2-2---2-2-2-2-2-2-|

 


 |


 

 
 Eb|--------------------------------|--------------------------------|
 Bb|---6------8------10------13-----|-11------------------------11\--|
 Gb|---x------x-------x-------x-----|--x-------------------------x---|
 Db|---3------5-------7------10-----|--8-------------------------8\--|
 Ab|--------------------------------|--------------------------------|
 Db|--------------------------------|--------------------------------|

 


 |Gtr. 3


 

 
 Eb|--------------------------------|--------------------------------|
 Bb|--------------------------------|--------------------------8-----|
 Gb|--------------------------------|-7~~~~~~--9-------10------------|
 Db|------------------7------10-----|--------------------------------|
 Ab|---8------10--------------------|--------------------------------|
 Db|--------------------------------|--------------------------------|

 


 


 =======================================================================================


 OUTRO


 =======================================================================================


 3:18-


 


 Dm*


 

 
 Eb|----------------------------------------------|
 Bb|----------------------------------------------|
 Gb|----------------------------------------------|
 Db|-----------3--3--3--3--2--2--2--2-------------|
 Ab|-----------------------------------3--3--3--3-|
 Db|---0------------------------------------------|

 


 |


 

 
 Eb|----------------------------------------10--0-|
 Bb|---10b(1/2)r-(10)b(1/2)r--(10)~~~~~~-10-------|
 Gb|----------------------------------------------|
 Db|----------------------------------------------|
 Ab|----------------------------------------------|
 Db|----------------------------------------------|
 Eb|----------------------------------------------|
 Bb|----------------------------------------------|
 Gb|----------------------------------------------|
 Db|-----------3--3--3--3--2--2--2--2-------------|
 Ab|-----------------------------------3--3--3--3-|
 Db|---0------------------------------------------|

 


 |


 

 
 Eb|----------------------------------------------|
 Bb|----------------------------------------------|
 Gb|---9b(1/2)r-(9)b(1/2)r-(9)~~~~~~~~----(9)\----|
 Db|----------------------------------------------|
 Ab|----------------------------------------------|
 Db|----------------------------------------------|
 Eb|----------------------------------------------|
 Bb|----------------------------------------------|
 Gb|----------------------------------------------|
 Db|-----------3--3--3--3--2--2--2--2-------------|
 Ab|-----------------------------------3--3--3--3-|
 Db|---0------------------------------------------|

 


 |


 

 
 Eb|----------------------------------------------|
 Bb|----------------------------------------------|
 Gb|---2b(1/2)r-(2)b(1/2)r-(2)--------------------|
 Db|----------------------------------------------|
 Ab|----------------------------------------------|
 Db|----------------------------------------------|
 Eb|------------------------|
 Bb|------------------------|
 Gb|-------3-3----3-3-----3-|
 Db|------------------------|
 Ab|---2-------2------2-----|
 Db|---2-------2------2-----|

 


 |


 

 
 Eb|-------6-6----6-6-----6-|
 Bb|-------x-x----x-x-----x-|
 Gb|-------3-3----3-3-----3-|
 Db|------------------------|
 Ab|------------------------|
 Db|------------------------|

 


 


 Guitar Legend*


 


 

 
 D*------------Distortion
 C*------------Clean
 h ------------Hammer-On
 p ------------Pull-Off
 b ------------Bend:

 


 


 + (1/4)-One-fourth bend + (1/2)-One-half bend +


 + (1)-Full bend + (2)-Double full bend, etc. +


 


 

 
 pb -----------Pre-Bend
 r ------------Bend Release ( if there is no number after r,

 


 release immediately )


 

 
 / ------------Slide Into
 \ ------------Slide Out Of
 s ------------Legato Slide
 S ------------Shift Slide
 Harm. --------Natural Harmonic
 A.H. ---------Artifitial Harmonic
 ~ ------------Vibrato
 tr -----------Trill
 T ------------Tap
 TR -----------Trem. Picking
 PM -----------Palm Muting
 \n/ ----------Tremolo Bar Dip; n - Amount to Dip
 \n -----------Tremolo Bar Down
 n/ -----------Tremolo Bar Up
 /n\ ----------Tremolo Bar Inverted Dip
 = ------------Hold Bend; Also Acts As Connecting Devise 

 


 For Hammer-Ons/Pull-Offs


 

 
 < ------------Volume Swell Louder
 > ------------Volume Swell Softer
 x ------------Muted Slash
 o ------------Single Note Slash
 T.H. ---------Tapped Harmonic


Important: The song above is NOT stored on the Chordie server. The original song is hosted at www.guitartabs.cc. Chordie works as a search engine and provides on-the-fly formatting. Chordie does not index songs against artists'/composers' will. To remove this song please click here.

This song is displayed as text-only. Transposing and tuning is only available for chordpro-songs.
Rate #0 of 1 versions

Login - add to songbook

SHARE PAGE  



You need to log in to post comments