Guitar Tabs, Chords and Lyrics
Server problems seems to be fixed. Chordie has been experiencing problems with songs disappearing. These issues now seems to be fixed, but still verifying the fix. If you find anything strange, please email admin@chordie.com.


True Romance  Silverstein

Arrivals And Departures
2007
Submitted by: paramore_fans@yahoo.com
Key: F#
Tuning: Standard EADGBe
Chords used:
Ebm - x68876
B - x24442
[F#]C# [-]- [244322]x46664
[G#m]C#/F[-] - [466444]143xxx
Bbm - x13321
Intro:
[Ebm] [C#] [Ebm] [C#] [F#] [C#/F]  
 
 e|-----|-----4-|-----|-----4-|-6--7-|-6--4/6-4-|
 B|-7---|-6/7---|-7---|-6/7---|------|----------|
 G|-----|-------|-----|-------|------|----------|
 D|-----|-------|-----|-------|-4--4-|-3--3-----|
 A|-6---|-4-----|-6---|-4-----|------|----------|
 E|-----|-------|-----|-------|------|----------|

[Ebm] [C#] [Ebm] [C#] [B] [Bbm]  
 
 e|-----|-----4-|-----|-----4-|-6--7-|-6--4/6-4-|
 B|-7---|-6/7---|-7---|-6/7---|------|----------|
 G|-----|-------|-----|-------|-4--4-|-3--3-----|
 D|-----|-------|-----|-------|------|----------|
 A|-6---|-4-----|-6---|-4-----|------|----------|
 E|-----|-------|-----|-------|------|----------|

Verse 1:
[Ebm] I'm not here to [B]judge you
I'm just here to [F#]tell you
what you have done [G#m]wrong
[G#m] [B]Beautiful [F#]girl [C#/F]looking her [G#m]best
[B]takes off a [F#]towel, [C#/F]puts on a [G#m]dress
[B]Fixes her [F#]hair to look [C#/F]good for some[G#m]one
who [B]waits in a [F#]car to go [C#/F]to a mo[G#m]tel[B]
[F#] [C#/F#]to a mo[G#m]tel[B] [F#] [C#/F]
Refrain:
I may [G#m]not [B]al[F#]ways[C#/F] be
[G#m]perfect[B] but I'll [F#]always [C#/F]try
Guitar 2: x2, In "To a motel..." until refrain
[G#m] [B] [F#] [C#/F]  
 
 e|----------|--------|----------|---------|
 B|----11----|-9/11-9-|----11----|---------|
 G|-------11-|--------|-11----11-|-10-8-10-|
 D|----------|-9------|----------|---------|
 A|-11-------|--------|-9--------|-8-------|
 E|----------|--------|----------|---------|

[G#m] [B] [F#] [C#/F]  
 
 e|----------|-9-----9-|----------|---------|
 B|----11----|---------|----11----|---------|
 G|-------11-|----11---|-11----11-|-10-8-10-|
 D|----------|-9-------|----------|---------|
 A|-11-------|---------|-9--------|-8-------|
 E|----------|---------|----------|---------|

Chorus:
Will you [Ebm]say [C#]all your [Ebm]prayers
[C#]just to be [F#]honest with your[C#/F]self?
Will you [Ebm]save [C#]your [Ebm]soul?
Is [C#]this what you [F#]wanted all a[C#/F]long?
Verse 2:
[G#m] [B]Husband can't [F#]bear
to just [C#/F]lie to him[G#m]self
S[B]tock market [F#]falls
and he [C#/F]loses it [G#m]all
[B]He sleeps a[F#]lone for
the [C#/F]third time this[G#m] week
[B]He's become [F#]numb he just
[C#/F]wants this to [G#m]be [B]o-[F#]ver
[C#/F]wants this to [G#m]be[B] [F#] [C#]
(Repeat Refrain and Chorus)
Bridge:
[B]Blood [Bbm] [C#]on the [Bbm]floo[B]r[Bbm] [C#]
[B]what [Bbm] [C#]have you [Bbm]done[B]?[Bbm] [C#]
[B]Head [Bbm] [C#]in your [Bbm]hand[B]s[Bbm] [C#]
[B]what [Bbm] [C#]have you [Bbm]done[B]?[Bbm] [C#]
(Repeat the first part of Intro)
Verse 3:
I may [Ebm]not [C#]al-[Ebm]ways[C#] be
[F#]perfect but
[C#/F]I'll always [C#]try
(Repeat Chorus x4)
Outro:
[G#m] [B]Beautiful [F#]girl
s[C#/F]leeps by her[G#m]self
[B]Half the bed's [F#]cold
she [C#/F]knows it's her [G#m]fault
[B]She's given [F#]in
and [C#/F]admitted de[G#m]feat
B F#(hold)
but she'll be fine

Important: The song above is NOT stored on the Chordie server. The original song is hosted at www.guitartabs.cc. Chordie works as a search engine and provides on-the-fly formatting. Chordie does not index songs against artists'/composers' will. To remove this song please click here.

Text color:
Chord color:
Chord grids: 
Font size:    
Page size: 

B Bbm C# C#/F C#/F# Ebm F# G#m
Rate #1 of 7 versions

Jango Player

Login - add to songbook

SHARE PAGE  




You need to log in to post comments