Guitar Tabs, Chords and Lyrics
Server problems seems to be fixed. Chordie has been experiencing problems with songs disappearing. These issues now seems to be fixed, but still verifying the fix. If you find anything strange, please email admin@chordie.com.


I Can Wait Forever  Simple Plan

Simple Plan - I Can Wait Forever
Standard tuning
the G#/G in the verses can be play as D# too but the bass is a G bass so i dunno
wat to put it as..
Verse1:
[G#]You look so [G#/G]beautiful to[Fm]day
When you're [C#]sitting there
It's [G#]hard for me to [D#]look a[D#sus]way[D#]
So I [G#]try to find the [G#/G]words that I could [Fm]say
I know that [C#]distance doesn't [G#]matter
But you [D#]feel so far a[D#sus]way[-] [D#]
Prechorus:
And I can't[Bbm] lie
Everytime I leave my [Fm]heart turns [D#]grey
And [Bbm]I, wanna come back home to [Fm]see your [D#]face to[C#]night
And I just can't take it
Chorus:
[G#]Another day without you with me
[Fm]Is like a blade that cuts right through me
[D#]But I can wait, I can wait for[C#]ever
[G#]When you call, my heart stops beating
[Fm]When you're gone, it won't stop bleeding
[D#]But I can wait, I can wait for[C#]ever
Verse2:
[G#]You look so [G#/G]beautiful to[Fm]day
It's like [C#]everytime I [G#]turn around
I [D#]see your [D#sus]face[D#]
The [G#]thing I miss the [G#/G]most is
[Fm]Waking up next to you
When I [C#]look into your e[G#]yes
I [D#]wish I could [D#sus]stay[D#]
Prechorus:
And I can't[Bbm] lie
Everytime I leave my [Fm]heart turns [D#]grey
And [Bbm]I, wanna come back home to [Fm]see your [D#]face to[C#]night
And I just can't take it
Chorus:
[G#]Another day without you with me
[Fm]Is like a blade that cuts right through me
[D#]But I can wait, I can wait for[C#]ever (I can wait forever)
[G#]When you call, my heart stops beating
[Fm]When you're gone, it won't stop bleeding
[D#]But I can wait (I can wait)
I can wait (I can wai[C#]t)
I can wait forever[G#]
 
 Solo: G# - D# - Fm - - C# - G# - D# x2
 e|-----------------------------------------------------------------|
 B|--11b13-11p9h11--11b13-9h11p9~-----------------------------------|
 G|-----------------------------------------------------------------|
 D|-----------------------------------------------------------------|
 A|-----------------------------------------------------------------|
 E|-----------------------------------------------------------------|
 e|-----------------------------------------------------------------|
 B|-----------------------------------------------------------------|
 G|----------10-13s12-12s10-10s8-8----------------------------------|
 D|--8s10-13----------------------10-11s10-10s8-8-10p8-6-888/10\8---|
 A|-------------------------------------------------------66/8-\6---|
 E|-----------------------------------------------------------------|
 e|-----------------------------------------------------------------|
 B|---------------11b13-11p9h11--11b13-9h11-------------------------|
 G|----------------------------------------10~--8-10--10810---------|
 D|--8b10-6s8-6-----------------------------------------------------|
 A|-----------------------------------------------------------------|
 E|-----------------------------------------------------------------|
 e|-------11-9-9s8-8s6-6------------15--15--16--16--18~--18----15\--|
 B|-----9----------------9-9~---9s16--16--16--16--16--------16------|
 G|--10-------------------------------------------------------------|
 D|-----------------------------------------------------------------|
 A|-----------------------------------------------------------------|
 E|-----------------------------------------------------------------|

Bridge:
I [C#]know it feels like [Fm]forever (Feels like forever)
I [Bbm]guess that's just the price I've got to [D#]pay
But when I [C#]come back home,
To feel your touch makes it [Fm]better (Makes it better)
Until that [D#]day there's nothing else that I can [C#]do
And I just can't take it (I just can't take it)
Chorus:
[G#]Another day without you with me
[Fm]Is like a blade that cuts right through me
[D#]But I can wait, I can wait for[C#]ever (I can wait forever)
[G#]When you call, my heart stops beating
[Fm]When you're gone, it won't stop bleeding
[D#]But I can wait (I can wait)
I can wait (I can [C#]wait)
I can wait forever (I can wait for[G#]ever)
 
 e|-----------------|

B|--11b13-9h11p9~--|
 
 G|-----------------|
 D|-----------------|
 A|-----------------|
 E|-----------------|

I can wait for[Fm]ever
 
 e|-----------------|

B|--11b13-9h11p9~--|
 
 G|-----------------|
 D|-----------------|
 A|-----------------|
 E|-----------------|

I can wait for[D#]ever[C#]
 
 e|--------------------------------------------|
 B|--------------------------------------------|
 G|----------10-1312131213121312131213b15-13~--|
 D|--8s10-13-----------------------------------|
 A|--------------------------------------------|
 E|--------------------------------------------|

I can wait for[G#]ever
I can wait for[Fm]ever
I can wait for[D#]ever[C#]
 
 e|----------------------|
 B|--11b13-9h11-9--------|
 G|---------------8------|
 D|-----------------6~~--|
 A|----------------------|
 E|----------------------|

End on C#

Important: The song above is NOT stored on the Chordie server. The original song is hosted at www.guitartabs.cc. Chordie works as a search engine and provides on-the-fly formatting. Chordie does not index songs against artists'/composers' will. To remove this song please click here.

Text color:
Chord color:
Chord grids: 
Font size:    
Page size: 

Bbm C# D# Fm G# G#/G
Rate #1 of 18 versions

Login - add to songbook

SHARE PAGE  



You need to log in to post comments