Guitar Tabs, Chords and Lyrics
Server problems seems to be fixed. Chordie has been experiencing problems with songs disappearing. These issues now seems to be fixed, but still verifying the fix. If you find anything strange, please email admin@chordie.com.


Iâ??m Just a Kid   Simple Plan

 
 -------------------------------------------------------------------------------

 


 I'm Just a kid - Simple Plan


 

 
 -------------------------------------------------------------------------------

 


 


 Artist: Simple Plan


 Song: Just A Kid


 Albulm(s): No Helmet, No pads...Just balls/The New Guy soundtrack


 Tabbed by: Zero is great man


 Tuning: Open D - DADGBe


 Gtr. 1 Plays Lead


 Gtr. 2 Plays Rythem


 


 Pedals = []Chorus - Distortion - Wah


 


 Intro/Verse 1/Interlude:


 (Gtr. 1)[Clean]


 

 
 e|---------------------------------------------------------------------------|
 B|---------------------------------------------------------------------------|
 G|---6------------6---------6------------6-----------------------------------|
 D|-----6--------6-------------6--------6-------------------------------------|
 A|-4-------------------------------------------------------------------------|
 D|------------4----------6----------4----------------------------------------|

 


 


 Pre - Chorus:


 "When you're spending everyday on your own."


 (Gtr. 1)[Clean]


 

 
 e|---------------------------------------------------------------------------|
 B|---------------------------------------------------------------------------|
 G|---------------------------------------------------------------------------|
 D|-4-4-4-4-4-4-4-4----6-6-6--------------------------------------------------|
 A|-4-4-4-4-4-4-4-4----6-6-6--------------------------------------------------|
 D|-4-4-4-4-4-4-4-4----6-6-6--------------------------------------------------|

 


 


 Chorus: Part 1


 "I'm Just a kid, and life is a nightmare."


 (Gtr. 1 + 2) [Distortion]


 

 
 e|---------------------------------------------------------------------------|
 B|---------------------------------------------------------------------------|
 G|-6-6-6---------------------------------------------------------------------|
 D|-6-6-6--4-4-4--6-6-6-6-6-6-------------------------------------------------|
 A|-4-4-4--4-4-4--6-6-6-6-6-6-------------------------------------------------|
 D|--------4-4-4--6-6-6-6-6-6-------------------------------------------------|

 


 


 Chorus: Part 2


 "Nobody cares, cause I'm alone and the world is having more fun then me,"


 (Gtr. 1 + 2) [Distortion]


 

 
 e|---------------------------------------------------------------------------|
 B|---------------------------------------------------------------------------|
 G|-8-8-8---------6-6-6---------8-8-8-----------------------------------------|
 D|-8-8-8--4-4-4--6-6-6--6-6-6--8-8-8--4-4-4--6-6-6-6-6-6---------------------|
 A|-6-6-6--4-4-4--4-4-4--6-6-6--6-6-6--4-4-4--6-6-6-6-6-6---------------------|
 D|--------4-4-4---------6-6-6---------4-4-4--6-6-6-6-6-6---------------------|

 


 


 Verse 2:


 "And maybe when the night is dead, I'll crawl into my bed"


 (Gtr. 1) [Distorted] + Palm Muted


 

 
 e|--------------------------------------------------------------------------|
 B|--------------------------------------------------------------------------|
 G|---6------------6---------6------------6----------------------------------|
 D|-----6--------6-------------6--------6------------------------------------|
 A|-4------------------------------------------------------------------------|
 D|------------4----------6----------4---------------------------------------|

 


 


 (Gtr. 2) [Distorted] + Palm Muted


 

 
 e|---------------------------------------------------------------------------|
 B|---------------------------------------------------------------------------|
 G|-6-6-6-6-------------------------------------------------------------------|
 D|-6-6-6-6---4-4-4-4-----6-6-6-6----4-4-4-4----------------------------------|
 A|-4-4-4-4---4-4-4-4-----6-6-6-6----4-4-4-4----------------------------------|
 D|-----------4-4-4-4-----6-6-6-6----4-4-4-4----------------------------------|

 


 


 Pre-Chorus:


 "And they're gonna leave me here on my own"


 Gtr. 1 [Distorted]


 

 
 e|---------------------------------------------------------------------------|
 B|---------------------------------------------------------------------------|
 G|---------------------------------------------------------------------------|
 D|---6---6---6---6--------6--------------------------------------------------|
 A|----------------------6----------------------------------------------------|
 D|-4---4---4---4------6------------------------------------------------------|

 


 


 Gtr. 2 [Distorted]


 

 
 e|---------------------------------------------------------------------------|
 B|---------------------------------------------------------------------------|
 G|---------------------------------------------------------------------------|
 D|-4-4-4-4-4-4-4-4----6-6-6--------------------------------------------------|
 A|-4-4-4-4-4-4-4-4----6-6-6--------------------------------------------------|
 D|-4-4-4-4-4-4-4-4----6-6-6--------------------------------------------------|

 


 


 Bridge:


 "What the fuck is wrong with me? I don't fit in with anybody"


 (Gtr. 2) [Cborus]


 

 
 e|---------------------------------------------------------------------------|
 B|---------------------------------------------------------------------------|
 G|-----------------------------------6-6-6-----------------------------------|
 D|-4-4-4-4-4-4-4-4--6-6-6-6-6-6-6-6--6-6-6--6-6-6--4-4-4-4-------------------|
 A|-4-4-4-4-4-4-4-4--6-6-6-6-6-6-6-6--4-4-4--6-6-6--4-4-4-4-------------------|
 D|-4-4-4-4-4-4-4-4--6-6-6-6-6-6-6-6---------6-6-6--4-4-4-4-------------------|

 


 


 (Gtr. 1) [Cborus]


 

 
 e|-----------------------------------13--------------------------------------|
 B|-14-13-14-13-14-13-14-13--16-16-14----16-14-16-----------------------------|
 G|---------------------------------------------------------------------------|
 D|---------------------------------------------------------------------------|
 A|---------------------------------------------------------------------------|
 D|---------------------------------------------------------------------------|

 


 


 "How can this happen to me?"


 (Gtr. 1) [Cborus]


 

 
 e|-14-13---------------------------------------------------------------------|
 B|-------16-14-14--16-14-----------------------------------------------------|
 G|---------------------------------------------------------------------------|
 D|---------------------------------------------------------------------------|
 A|---------------------------------------------------------------------------|
 D|---------------------------------------------------------------------------|

 


 


 "Wide awake I'm bored and I can't fall asleep."


 (Gtr.1) [Cborus]


 

 
 e|-----------------------------------13--------------------------------------|
 B|-14-13-14-13-14-13-14-13--16-16-14-----16-14-13----------------------------|
 G|---------------------------------------------------------------------------|
 D|---------------------------------------------------------------------------|
 A|---------------------------------------------------------------------------|
 D|---------------------------------------------------------------------------|

 


 


 "And every night is the worst night ever"


 (Gtr. 1) [Cborus]


 

 
 e|-14-13-14-13-14-13--16-----------------------------------------------------|
 B|---------------------------------------------------------------------------|
 G|---------------------------------------------------------------------------|
 D|---------------------------------------------------------------------------|
 A|---------------------------------------------------------------------------|
 D|---------------------------------------------------------------------------|

 


 


 Final-Chorus:


 "Tonight, I'm all alone tonight"


 (Gtr. 2) [Distortion]


 

 
 e|--------------------------------------------------------------------------|
 B|--------------------------------------------------------------------------|
 G|-----------------------------------6-6-6-6-6-6-6--------------------------|
 D|-4-4-4-4-4-4-4-4--6-6-6-6-6-6-6-6--6-6-6-6-6-6-6--------------------------|
 A|-4-4-4-4-4-4-4-4--6-6-6-6-6-6-6-6--4-4-4-4-4-4-4--------------------------|
 D|-4-4-4-4-4-4-4-4--6-6-6-6-6-6-6-6-----------------------------------------|

 


 


 (Gtr. 1) [Wab] ^ = up v = Down


 ^ v ^ v ^ v ^ v ^ ^ ^


 

 
 e|--------------------------14-13-11----------------------------------------|
 B|-14-14-14-14-16-16-16-16--------------------------------------------------|
 G|--------------------------------------------------------------------------|
 D|--------------------------------------------------------------------------|
 A|--------------------------------------------------------------------------|
 D|--------------------------------------------------------------------------|

 


 


 "Nobody cares tonight"


 (Gtr. 2) [Distortion]


 

 
 e|-------------------------------------------------------------------------|
 B|-------------------------------------------------------------------------|
 G|-------------------------------------------------------------------------|
 D|-6-6-6-6-6-6-6-6---------------------------------------------------------|
 A|-6-6-6-6-6-6-6-6---------------------------------------------------------|
 D|-6-6-6-6-6-6-6-6---------------------------------------------------------|

 


 


 (Gtr. 1) [Wab]


 ^ v ^ v ^ v ^ v ^ ^ ^


 

 
 e|--------------------------14-13-11---------------------------------------|
 B|-14-14-14-14-11-11-11-11-------------------------------------------------|
 G|-------------------------------------------------------------------------|
 D|-------------------------------------------------------------------------|
 A|-------------------------------------------------------------------------|
 D|-------------------------------------------------------------------------|

 


 


 "'Cause I'm just a kid"


 (Gtr 2.) [Distortion]


 

 
 e|--------------------------------------------------------------------------|
 B|--------------------------------------------------------------------------|
 G|--------------------------------------------------------------------------|
 D|-4-4-4-4-4-4-4--6-6-6-6-6-6-6-6-------------------------------------------|
 A|-4-4-4-4-4-4-4--6-6-6-6-6-6-6-6-------------------------------------------|
 D|-4-4-4-4-4-4-4--6-6-6-6-6-6-6-6-------------------------------------------|

 


 


 (Gtr. 1) [Wab]


 

 
 e|---------------------------14-13-11--------------------------------------|
 B|-------------------------------------------------------------------------|
 G|-11-11-11-11--13-13-13-13------------------------------------------------|
 D|-------------------------------------------------------------------------|
 A|-------------------------------------------------------------------------|
 D|-------------------------------------------------------------------------|

 


 


 Outro: "Tonight..."


 (Gtr. 1) [Cborus]


 

 
 e|--------------------------------------------------------------------------|
 B|-14-----------------------------------------------------------------------|
 G|-----13--11---------------------------------------------------------------|
 D|--------------------------------------------------------------------------|
 A|--------------------------------------------------------------------------|
 D|--------------------------------------------------------------------------|

 


 


 (Gtr. 2) [Distortion]


 

 
 e|-------------------------------------------------------------------------|
 B|-------------------------------------------------------------------------|
 G|-6-----------------------------------------------------------------------|
 D|-6---6---4---------------------------------------------------------------|
 A|-4---6---4---------------------------------------------------------------|
 D|-----6---4---------------------------------------------------------------|


Important: The song above is NOT stored on the Chordie server. The original song is hosted at www.guitartabs.cc. Chordie works as a search engine and provides on-the-fly formatting. Chordie does not index songs against artists'/composers' will. To remove this song please click here.

This song is displayed as text-only. Transposing and tuning is only available for chordpro-songs.
Rate #2 of 5 versions

Login - add to songbook

SHARE PAGE  



You need to log in to post comments