Guitar Tabs, Chords and Lyrics
Server problems seems to be fixed. Chordie has been experiencing problems with songs disappearing. These issues now seems to be fixed, but still verifying the fix. If you find anything strange, please email admin@chordie.com.


Take My Hand  Simple Plan

Simple Plan - Take My Hand
Standard tuning
Since its a fast rock song ill give u the power chords but im sure u can play
the normal chords too. the solos are not 100% correct its my 1st time tabbing solos im not
very good at it but i think good enough to play..i think they are definitely play on the
lower parts of the fretboard especially for the solo after the bridge..
C#m - x466xx
A - 577xxx
E - x799xx
B - 799xxx
G#5 - 466xxx
F#m - 244xxx
Intro/Solo: C#m - C#m - C#m - C#m
[C#m] [-] [A] [-] [E] [-] [B]  
[C#m] [-] [A] [-] [E] [-] [B]  
[C#m]  
 
 e|-----------------------------------|-----------------------------------|
 B|-----------------------------------|-----------------------------------|
 G|-----------------------------------|-----------------------------------|
 D|----------2---------------6--------|----------2-------2-------6--------|
 A|--4-4-2-4---4-2-4-4-4-2-4---4-2-4--|--4-4-2-4---4-2-4---4-2-4---4-2-4--|
 E|-----------------------------------|-----------------------------------|
 e|-----------------------------------|-----------------------------------|
 B|-----------------------------------|-----------------------------------|
 G|-----------------------------------|-----------------------------------|
 D|----------2---------------6--------|----------2------------------------|
 A|--4-4-2-4---4-2-4-4-4-2-4---4-2-4--|--4-4-2-4---4-2-4-6-6-4-6-7-6-4----|
 E|-----------------------------------|--------------------------------7--|
 e|-----------------------------------|-----------------------------------|
 B|-----------------------------------|-----------------------------------|
 G|-----------------------------------|-----------------------------------|
 D|----------2---------------6--------|----------2-------2-------6--------|
 A|--4-4-2-4---4-2-4-4-4-2-4---4-2-4--|--4-4-2-4---4-2-4---4-2-4---4-2-4~-|
 E|-----------------------------------|-----------------------------------|

Verse1:
[C#m]Sometimes I feel like every[A]body's got a problem
[E]Sometimes I feel like nobo[B]dy wants to solve them
[C#m]I know that people say we're [A]never gonna make it
[E]But I know we're [B]gonna get through this
Prechorus:
[A]Close your eyes and [B]please don't let me [C#m]go (Go go go)
Don't let me go now
[A]Close your eyes don't [B]let me let you [G#5]go
Chorus:
Take my [C#m]hand to[A]night
Let's not [E]think about to[B]mmorow
Take my [C#m]hand to[A]night
We can [E]find some place to [B]go
Cause our [C#m]hearts are locked for[A]ever
And our [E]love will never [B]die
Take my [C#m]hand to[A]night
One last [G#5]time
 
 e|-------------------|
 B|-------------------|
 G|-------------------|
 D|-------------------|
 A|--6-6-4-6-7-6-4----|
 E|----------------7--|

Intro/Solo: C#m - A - E - B x2
 
 e|-----------------------------------|-----------------------------------|
 B|-----------------------------------|-----------------------------------|
 G|-----------------------------------|-----------------------------------|
 D|----------2---------------6--------|----------2-------2-------6--------|
 A|--4-4-2-4---4-2-4-4-4-2-4---4-2-4--|--4-4-2-4---4-2-4---4-2-4---4-2-4--|
 E|-----------------------------------|-----------------------------------|
 e|-----------------------------------|-----------------------------------|
 B|-----------------------------------|-----------------------------------|
 G|-----------------------------------|-----------------------------------|
 D|----------2---------------6--------|----------2------------------------|
 A|--4-4-2-4---4-2-4-4-4-2-4---4-2-4--|--4-4-2-4---4-2-4-6-6-4-6-7-6-4----|
 E|-----------------------------------|--------------------------------7--|

Verse2:
The [C#m]city sleeps and we're [A]lost in the moment
Another [E]kiss as we're [B]lying on the pavement
[C#m]If they could see us they would [A]tell us that we're crazy
[E]But I know they [B]just don't under[A]stand
Prechorus:
[A]Close your eyes and [B]please don't let me [C#m]go (Go go go)
Don't let me go now
[A]Close your eyes don't [B]let me let you [G#5]go go go...
Chorus:
Take my [C#m]hand to[A]night
Let's not [E]think about to[B]mmorow
Take my [C#m]hand to[A]night
We can [E]find some place to [B]go
Cause our [C#m]hearts are locked for[A]ever
And our [E]love will never [B]die
Take my [C#m]hand to[A]night
One last [G#5]time[C#m] [-] [A] [-] [E] [-] [F#m]
[C#m] [-] [A] [-] [E] [-] [F#m]  
Bridge:
[C#m]The rain drops, the [A]tears keep falling
[E]I see your face and it [F#m]keeps me going
[C#m]If I get lost your [A]light's gonna guide me
[E]And I know that [F#m]you can take me [A]home[-] [B] [-] [C#m]
You can take me [A]home[-] [B] [-] [G#5] [-] [G#5] [-] [G#5] [-] [G#5]
 
 e|-----------------------------------|-----------------------------------|
 B|-----------------------------------|-----------------------------------|
 G|-----------------------------------|-----------------------------------|
 D|----------2---------------6--------|----------2-------2-------6--------|
 A|--4-4-2-4---4-2-4-4-4-2-4---4-2-4--|--4-4-2-4---4-2-4---4-2-4---4-2-4--|
 E|-----------------------------------|-----------------------------------|
 e|----------------------------------------------------------------------------------------|
 B|----------------------------------------------------------16-16-16b-16b-16b-16b-161616--|
 G|----------------------------------------------------------------------------------------|
 D|----------2-------2-------6-------6-5b6-5b6-5b6-5b6-6p4---------------------------------|
 A|--4-4-2-4---4-2-4---4-2-4---4-2-4----------------------74-------------------------------|
 E|----------------------------------------------------------------------------------------|

Chorus:
Take my [C#m]hand to[A]night
Let's not [E]think about to[B]mmorow
Take my [C#m]hand to[A]night
We can [E]find some place to [B]go
Cause our [C#m]hearts are locked for[A]ever
And our [E]love will never [B]die
Take my [C#m]hand to[A]night
One last [G#5]time
Take my [C#m]hand to[A]night
Let's not [E]think about to[B]mmorow
Take my [C#m]hand to[A]night
We can [E]find some place to [B]go (Find some place to go)
Cause our [C#m]hearts are locked for[A]ever
And our [E]love will never [B]die (Love will never die)
Take my [C#m]hand to[A]night
One last [G#5]time (One last time...)
 
 e|-----------------------|
 B|-----------------------|
 G|-----------------------|
 D|-----------------------|
 A|--6-6-4-6-7-6-4---4-4--|
 E|----------------7------|

[C#m]  
End on C#m

Important: The song above is NOT stored on the Chordie server. The original song is hosted at www.guitartabs.cc. Chordie works as a search engine and provides on-the-fly formatting. Chordie does not index songs against artists'/composers' will. To remove this song please click here.

Text color:
Chord color:
Chord grids: 
Font size:    
Page size: 

A B C#m E F#m G#5
Rate #1 of 6 versions

Jango Player

Login - add to songbook

SHARE PAGE  



You need to log in to post comments