Guitar Tabs, Chords and Lyrics
Update 25:10. 13:00. Site is back up running again. Songbooks are recovered. Woring on getting search back up..


Your Love Is a Lie  Simple Plan

Your Love is A lie - Simple Plan
Info : Guitar.1 plays tabs and when they come to pre chorus they play chords.
Guitar.2 only plays chords.
But they play together on every verse and they play together on the first 3 line.
And so 2.guitar goes on at chords on the end of the chorus. :P
I hope it works for you guys but for me and my friend it's work. :P
Intro.
 
 e|---------0-------------------------------------|
 B|-------0---0-----------3----------3-----------2|
 G|-----0-------0-------0--------2-----2-------2--|
 D|---2-----------2---0--------0---0-----0---2----|
 A|--------------------------0-------------0------|
 E|-0---------------3-----------------------------|

Verse.(1.Guitar)
 
 e|---------0-------------------------------------|
 B|-------0---0-----------3----------3-----------2|
 G|-----0-------0-------0--------2-----2-------2--|
 D|---2-----------2---0--------0---0-----0---2----|
 A|--------------------------0-------------0------|
 E|-0---------------3-----------------------------|

Verse.(2.Guitar)(play together with 1.Guitar)
Em G |
I fall asleep by the telephone. |
D A Em |
It's two o'clock and I'm waiting up alone. |
G D A |
Tell me, where have you been? (where have you been) |Important Things -> 1.Guitar
play higher sound than 2.guitar.
 
 Em G |----II---- -> 2.Guitar have 

play low sound because is only 1.Guitar we should hear at most.
I found a note with another name. |
D A Em |
You blow a kiss but it just don't feel the same. |
G D |
'Cuz I can feel that you're gone. (feel that you're gone) |
Pre Chorus. IMPORTANT On Pre-Chorus both guitar play together! But they have to play
sound on Pre Chorus.
 
 |------------------------------------------------------------------|

| C G D G |
| I canít bite my tongue forever, while you try to play it cool. |
| C G D |
| You can hide behind your stories, but donít take me for a fool! |
 
 |------------------------------------------------------------------|

Chorus.(1.Guitar)
 
 e|---------------------------------------------------------------------------|
 B|---------------------------------------------------------------------------|
 G|88888-------6666666--------------------------------------------------------|
 D|88888-44444-6666666-6666666------------------------------------------------|2x
 A|66666-44444-4444444-6666666------------------------------------------------|
 E|------22222---------4444444------------------------------------------------|

( Tab from: http://www.guitartabs.cc/tabs/s/simple_plan/your_love_is_a_lie_tab_ver_2.html )
 
 e|---------------------------------------------------------------------------|
 B|---------------------------------------------------------------------------|
 G|44444-------66666-------4444444-6666666------------------------------------|
 D|44444-44444-66666-66666-4444444-6666666------------------------------------|1x
 A|22222-44444-44444-66666-2222222-4444444------------------------------------|
 E|------22222-------44444----------------------------------------------------|

Chorus. (2.Guitar will play chords on the Chorus) (Also play together with 1.Guitar.
You can [Em]tell me that there's [G]nobody e[D]lse (but I f[C]eel it!)[D]
You can t[Em]ell me that you're ho[G]me by yoursel[D]f (but I s[C]ee it!)[D]
You can l[Em]ook into my eye[G]s and pretend [D]all you wa[G]nt, but I kn[C]ow, I kn[D]ow
Your love is just a l[Em]ie! (Lie[G]! Lie!)[D] [A]
It's nothing but a li[Em]e! (Lie![G] Lie!)[D] [A]
(IMPORTANT!!)
 
 -----------------------------------------------------------------------------------------

|On the chorus 1.Guitar only play to (But i know, I know) But 2.Guitar will play to end.|
 
 -----------------------------------------------------------------------------------------

Verse.(1.Guitar)
 
 e|---------0-------------------------------------|
 B|-------0---0-----------3----------3-----------2|
 G|-----0-------0-------0--------2-----2-------2--| to Pre Chorus.
 D|---2-----------2---0--------0---0-----0---2----|
 A|--------------------------0-------------0------| You can play this if ur friend play 

at the same time.
 
 E|-0---------------3-----------------------------|

Verse.(2.Guitar)(Play together with 1.Guitar)
Y[Em]ou look so i[G]nnocent,
B[D]ut the guilt in your[A] voice gives you away.
Y[Em]eah, you kno[G]w what I mea[D]n (know what [A]I mean)
H[Em]ow does it feel when you kiss when you k[G]now that I trust you
A[D]nd do you think about me [A]when he fucks you?
C[Em]ould you be [G]more obscene[D]? (be more obscene)
Pre Chorus. The last IMPORTANT:P On Pre-Chorus both guitar play together! But they have
play high sound on Pre Chorus.
 
 |-------------------------------------------------------------------|

| C G D G |
| So don't try to say you're sorry, or try to make it right. |
| C G D |
| And don't waste your breath because it's too late, it's too late! |
 
 |-------------------------------------------------------------------|

C-H-O-R-U-S!!!!!!!!!!!!!!!!!!!!!!!!
Chorus 2x also TWo times :P
End!!!!

Important: The song above is NOT stored on the Chordie server. The original song is hosted at www.guitartabs.cc. Chordie works as a search engine and provides on-the-fly formatting. Chordie does not index songs against artists'/composers' will. To remove this song please click here.

Text color:
Chord color:
Chord grids: 
Font size:    
Page size: 

A C D Em G
Rate #4 of 15 versions

Login - add to songbook

SHARE PAGE  




You need to log in to post comments