Guitar Tabs, Chords and Lyrics
Server problems seems to be fixed. Chordie has been experiencing problems with songs disappearing. These issues now seems to be fixed, but still verifying the fix. If you find anything strange, please email admin@chordie.com.


Where Do You Go  Sister Hazel

 
 -------------------------------------------------------------------------------

WHERE DO YOU GO - Sister Hazel
 
 -------------------------------------------------------------------------------

Tabbed by: darkstar94
Email: darkstar94@hotmail.com
Helps if you listen to song for timing, but if you are looking at this tab
you would already probably know it
Tuning: Standard
Acoustic Guitar Intro and Verse:
Guitar 1 (right channel)
 
 e|-----0--0--0-0--0----|-----0--0--0-0--0----|-----0--0--0-0--0----|-----0--0-0------0--0----|
 B|-----3--3--3-3--3----|-----3--3--3-3--3----|-----3--3--3-3--3----|-----3--3-3------3--3----|
 G|-----2--2--2-2--2----|-----2--2--2-2--2----|-----2--2--2-2--2----|-----2--2-2------2--2----|
 D|--0------------------|---------------------|---------------------|-------------------------|
 A|---------------------|--4------------------|---------------------|--2-----------0----------|
 E|---------------------|---------------------|--3------------------|-------------------------|

Guitar 2 (left channel)
 
 e|-----0--0--0-0--0----|-----0--0--0-0--0----|-----0--0--0-0--0----|-----------------------------|
 B|-----3--3--3-3--3----|-----3--3--3-3--3----|-----3--3--3-3--3----|-----------------------------|
 G|-----2--2--2-2--2----|-----2--2--2-2--2----|-----2--2--2-2--2----|--------0------------0-------|
 D|--0------------------|---------------------|---------------------|-----4-----4------4-----4----|
 A|---------------------|--4------------------|---------------------|--2------------0-------------|
 E|---------------------|---------------------|--3------------------|-----------------------------|

Guitar 3 (lead guitar)
 
 e|-----10--9--10-------|---------------------|-----10--9--10-------|-----------------------------|
 B|---------------------|---------------------|---------------------|-----------------------------|
 G|---------------------|---------------------|---------------------|-----------------------------|
 D|---------------------|---------------------|---------------------|-----------------------------|
 A|---------------------|---------------------|---------------------|-----------------------------|
 E|---------------------|---------------------|---------------------|-----------------------------|

Pre Chorus: Guitar 1 & 2 (first time together)
 
 e|--3----------0----|--2---------------|--3----------0----|--2----------0----|
 B|--3----------2----|--3---------------|--3----------2----|--3----------2----|
 G|--0----------2----|--2---------------|--0----------2----|--4----------2----|
 D|--0----------2----|--0---------------|--0----------2----|--4----------2----|
 A|--2----------0----|------------------|--2----------0----|--2----------0----|
 E|--3---------------|-------------2----|--3---------------|------------------|

Guitar 1:
 
 e|--3----------0----|--2---------------|--0---------------|--3---------------|--0-------------|
 B|--3----------2----|--3---------------|--0---------------|--3---------------|--2-------------|
 G|--0----------2----|--4---------------|--9---------------|--0---------------|--2-------------|
 D|--0----------2----|--4---------------|--9---------------|--0---------------|--2-------------|
 A|--2----------0----|--2----------0----|--7---------------|--2---------------|--0-------------|
 E|--3---------------|------------------|--0---------------|--3---------------|----------------|

Guitar 2:
 
 e|--3----------0----|--2---------------|-------------0----|
 B|--3----------2----|--3---------------|-----------0---0--|
 G|--0----------2----|--4---------------|--------4---------|
 D|--0----------2----|--4---------------|------2-----------|
 A|--2----------0----|--2----------0----|------------------|
 E|--3---------------|------------------|------------------|
 e|-------------------------|-------------------------|
 B|----------2---------2----|----------2---------2----|
 G|-------3---------3-------|-------3---------3-------|
 D|----0---------0----------|----0---------0----------|
 A|-------------------------|-------------------------|
 E|-------------------------|-------------------------|

Chorus:
Look at Chords section for the chorus, lead guitar plays:
Lead Guitar:
 
 e|--10----10----10-----10------|--9----9----9----9-----|
 B|-----10----10----10------10--|----10---10---10---10--|
 G|-----------------------------|-----------------------|
 D|-----------------------------|-----------------------|
 A|-----------------------------|-----------------------|
 E|-----------------------------|-----------------------|
 e|--10----10----10----10-----|--7---7---7---7----|
 B|-----10----10----10----10--|----8---8---8---8--|
 G|---------------------------|-------------------|
 D|---------------------------|-------------------|
 A|---------------------------|-------------------|
 E|---------------------------|-------------------|

( Tab from: http://www.guitartabs.cc/tabs/s/sister_hazel/where_do_you_go_tab.html )
 
 e|--10----10----10-----10------|--12----12----12----12-----|
 B|-----10----10----10------10--|-----10----10----10----10--|
 G|-----------------------------|---------------------------|
 D|-----------------------------|---------------------------|
 A|-----------------------------|---------------------------|
 E|-----------------------------|---------------------------|
 e|--10----10----10----10-----|--7---7---7---7----|
 B|-----10----10----10----10--|----8---8---8---8--|
 G|---------------------------|-------------------|
 D|---------------------------|-------------------|
 A|---------------------------|-------------------|
 E|---------------------------|-------------------|

Weird effects guitar plays this between first chorus and second verse:
 
 e|-------10---9----------------------|
 B|--10-------------10----------------|
 G|------------------------9-----7----|
 D|-----------------------------------|
 A|-----------------------------------|
 E|-----------------------------------|

Bridge: One guitar repeats this the whole bridge
Guitar 1:
 
 e|-----------------------------------|
 B|------3-------3-------3-------3----|
 G|--6-------6-------6-------6--------|
 D|-----------------------------------|
 A|-----------------------------------|
 E|-----------------------------------|

Solo Guitar 2:
 
 e|--0--------------|-------------------|-------------------|--------------|
 B|--0--------------|-----------3-------|--3----------------|--------------|
 G|--6--------------|--------0-----0----|------6----6s9~~---|--9-----------|
 D|--6--------------|-----4-------------|-------------------|-------9------|
 A|--4--------------|--2----------------|-------------------|--------------|
 E|-----------------|-------------------|-------------------|--------------|
 e|-------------------------------------------|
 B|-------------------------------------------|
 G|-------------------------------------------|
 D|-------------------------------------------|
 A|--4--4s5--5s7--7~------7s9~---10-----12----|
 E|-------------------------------------------|

It's hard to write the timing so just listen to the song for the timing of the solo,
quiet at points
Post Solo:
Strum Dsus2 (left channel guitar)
 
 e|--0-----------------|
 B|--3-----------------|
 G|--2-----------------|
 D|--0-----------------|
 A|--------------------|
 E|--------------------|

Other guitar play D once and let ring during this quiet part after the solo while other
strums Dsus2
Chords:
Intro:
[Dsus2]Broke the ring around it
[Dsus2/C#]I can't think about it
[Dsus2/G]I can barely start to [Dsus2/B]even wrap my [Dsus2/A]head around it
[Dsus2]Waters rise around us
[Dsus2/C#]Sinking ships surround us
[Dsus2/G]I can't believe she even [Dsus2/B]found a way [Dsus2/A]inside to drown us
Pre Chorus:
[G]I'm not [A]so s[D]ure anymore [G/F#]what's [G]next
[G]Or if [A]there's [Bm]anything left [A]for [G]us
[G]What will [A]we [Bm]find inside [A]of the [E5]wreck
Yeah [G]we both know it's [A]all just washed away
Chorus:
[D]Where do you [A]go and what do you [Bm]do
When all you have [G]left is hanging on you
[D]Where do you [A]go and what do you [Bm]do
When you lose [G]everything you ever knew
Verse:
Shine a light into it
Shoot a cannon through it
Spill it all and hope you find a way to make it through it
'Cause down is up and up is down
And love lies dying all on the ground
You find the line that's in the sand and figure out who drew it
Pre Chorus:
I'm not quite sure anymore what's next
Or if there's anything left for us
What will we find inside of the wreck
Yeah we both know it's all just washed away
Chorus:
Where do you go and what do you do
When all you have left is hanging on you
Where do you go and what do you do
When you lose everything
Verse:
Broke the ring around it
And I can't think about it I can barely start to wrap my head around it
'Cause down is up and up is down
And love lies dying all on the ground
You find the line that's in the sand and figure out who drew it
Chorus:
Where do you go and what do you do
When all you have left is hanging on you
Where do you go and what do you do
When you lose everything you ever knew
Where do you go and what do you do
When all that you have's been taken from you
Where do you go and what do you do
When you lose everything
End the song on D and that's pretty much it
If you want me to get any more specific, just e-mail me

Important: The song above is NOT stored on the Chordie server. The original song is hosted at www.guitartabs.cc. Chordie works as a search engine and provides on-the-fly formatting. Chordie does not index songs against artists'/composers' will. To remove this song please click here.

Text color:
Chord color:
Chord grids: 
Font size:    
Page size: 

A Bm D Dsus2 Dsus2/A Dsus2/B Dsus2/C# Dsus2/G E5 G G/F#
Rate #1 of 2 versions

Login - add to songbook

SHARE PAGE  



You need to log in to post comments