Guitar Tabs, Chords and Lyrics
Server problems seems to be fixed. Chordie has been experiencing problems with songs disappearing. These issues now seems to be fixed, but still verifying the fix. If you find anything strange, please email admin@chordie.com.


A buen ritmo  Skalariak

Intro:
 
 e--------------------------------|
 B--------6---------8----------8--|
 G-----5---------7----------9-----|
 D--7---------9---------10--------|
 A--------------------------------|
 E--------------------------------|
 e--------------------|
 B--------6---------8-|
 G-----5---------7----|
 D--7---------9-------|
 A--------------------|
 E--------------------|
 C-G-G-F#-F-G-C-G (x2)

[C]Pongo el despertador
Para [Em]que suene mañana[F]
y apenas du[G]ermo un rato
[C]tengo dolo[G]r...
mir[C]ando el puto reloj
hasta [Em]que suena la alarma[F]
han pasado las h[G]oras
en el cu[C]arto del hor[G]ror
Y y[C]a se que voy hacer [Em]ante nada rendir!
[F]hay ke espavilar y sak[G]ar el orgullo
par[C]a sobrevivi[G]r!
por ak[C]ellos los ke me kieran si! bien mu[G]erto!
por [F]ellos vivire toda[G]via muxo tiempo [C]ooooeeeoo[G]o!!
[C]eeeeeoooooeeeeoo[G]oo!!
asi a buen ritmo los deseo jul[F]ai!
nadie as[G]i puede perde[C]r![G]
[C]eeeeeoooooeeeeoo[G]oo!!
asi a buen ritmo los deseo jul[F]ai!
nadie as[G]i puede cae[C]r![G]
Se repite el intro
[C]No puedo estar peor
t[Em]engo muy mala cara[F]
no he nacido pa[G]ra este mundo
me aho[C]ga el dol[G]or
Te he pa[C]sado mi corazon
hasta al[Em]tura no siento nada
si m[F]e empujo al va[G]cio
no resp[C]iraré mej[G]or!
( Tab from: http://www.guitartabs.cc/tabs/s/skalariak/a_buen_ritmo_tab.html )
Y [C]ya se que voy hacer [Em]ante nada rendir!
[F]hay ke espavilar y sak[G]ar el orgullo
par[C]a sobreviv[G]ir!
por ak[C]ellos los ke me kieran si! bien mu[Em]erto!
por [F]ellos vivire todav[G]ia muxo tiempo [C]ooooeeeoo[G]o!!
[C]eeeeeoooooeeeeoo[G]oo!!
asi a buen ritmo los deseo jul[F]ai!
nadie as[G]i puede perde[C]r![G]
[C]eeeeeoooooeeeeooo[G]o!!
asi a buen ritmo los deseo jula[F]i!
nadie as[C]i puede cae[C]r! (bi[G]s)
SOLO:
 
 e-------------------------------------------|
 B------------------------------5--8--10^-8--|
 G---------------------5-5--7-7--------------|
 D-----------5-5--7-7------------------------|
 A-/3-3--7-7---------------------------------|
 E-------------------------------------------|
 e8-8-7-8--8-8-7-8--8-8-7-8-10-8-7-8-----|
 B---------------------------------------|
 G---------------------------------------|
 D---------------------------------------|
 A---------------------------------------|
 E---------------------------------------|
 e-12-12-12-10-8-7-8-10-12-13-13/15^--------|
 B------------------------------------------|
 G------------------------------------------|
 D------------------------------------------|
 A------------------------------------------|
 E------------------------------------------|
 e------------------------------------------------------------|
 B-----8^---------8^------------------------------------------|
 G--8^----8^---8^----8^--8------------------------------------|
 D--------------------------10-7-10-10-7-10-12^-10~~~---------|
 A------------------------------------------------------------|
 E------------------------------------------------------------|

[C]eeeeeoooooeeeeoo[G]oo!!
asi a buen ritmo los deseo jul[F]ai!
nadie as[G]i puede perde[C]r![G]
[C]eeeeeoooooeeeeooo[G]o!!
asi a buen ritmo los deseo jula[F]i!
nadie as[C]i puede cae[C]r! (bi[G]s)
Final:
 
 C-C-C-C-G-C-C-C-C-G-C


Important: The song above is NOT stored on the Chordie server. The original song is hosted at www.guitartabs.cc. Chordie works as a search engine and provides on-the-fly formatting. Chordie does not index songs against artists'/composers' will. To remove this song please click here.

Text color:
Chord color:
Chord grids: 
Font size:    
Page size: 

C Em F G
Rate #1 of 2 versions

Jango Player

Login - add to songbook

SHARE PAGE  




You need to log in to post comments