Guitar Tabs, Chords and Lyrics
Server problems seems to be fixed. Chordie has been experiencing problems with songs disappearing. These issues now seems to be fixed, but still verifying the fix. If you find anything strange, please email admin@chordie.com.


Blue Jeans  Skyhooks

transcribed by chrish@alphalink.com.au
key:
 
 s>>> or s>>>14--14-----14--14--14--14--------------|
 d----------------------------------------------14--14--14--14-------|
 a-------------------------------------------------------------------|
 e----0--0--2--2-----------------------------------------------------|
 e----------------------------------------------------------------------|
 b----------------------------------------------------------------------|
 g---12--11--12--9-----9s>>13--13--13--13--11--9--11--9-----------------|
 d---12--11--12--9-----9s>>13--13--13--13--11--9--11--9-----------------|
 a----------------------------------------------------------------------|
 e----------------------------------------------------------------------|
 e-------------------------------------------------------------------|
 b-------------------------------------------------------------------|
 g---11--9-------11--9-----------------------------------------------|
 d------------11----------11--11--9----------------------------------|
 a---------------------------------------12--------------------------|
 e-------------------------------------------------------------------|

guitar 2
 
 e-------------------------------------------------------------------|
 b-------------------------------------------------------------------|
 g-------------------------------------------------------------------|
 d-------------------------------------------------------------------|
 a--------------------------0----------------------------------------|
 e-----0--0--2--2--4--4----------------------------------------------|

then RIFF 2
 
 e-------------------------------------------------------------------|
 b-------------------------------------------------------------------|
 g-------------------------------------------------------------------|
 d-----------2--2-----2----------------------------------------------| X 4 then
 a----2--4---------4-----0*------------------------------------------|
 e-------------------------------------------------------------------|

*on fourth time drop this note and start below
 
 e-------------------------------------------------------------------------------------------|
 b-------------------------------------------------------------------------------------------|
 g-------------------------------------------------------------------------------------------|
 d---------------------------------------------------------------2--2-----2------------------|
 a--------------2--2------2-------------2--2------2--0--2--4--------4-----0------------------|
 e----0--2--4---------4------0--2--4---------4---------------------------------- end RIFF 2--|

INTRO:
Chorus: with RIFF 1 and RIFF 2
Everybody's wearin' blue jeans, everybody's got their own scenes,
Everybody's lost in daydreams, but everybody's wearin' blue jeans.
Chorus 2: with RIFF 2
RIFF 3
[C#] [C#] [D] [D] [A] [A] [C#] [C#] [C#]  
 
 e--------4----4---5---5---5---5---4---4----4------------------------|
 b--------6----6---7---7---5---5---6---6----6--------12--11--12--13--|
 g--------6----6---7---7---6---6---6---6----6--------11--11--11--11--|
 d-------------------------7---7------------6------------------------|
 a------------------------------------------4------------------------|
 e-------------------------------------------------------------------|

Verse 1: with RIFF 3
We're all reading the same books, we're all getting the same looks
Everybody's got their own views, but we're all reading the same news
Chorus 3: with RIFF 2
solo and RIFF 2
Verse 2: with Riff 3
Chorus 4: with RIFF 2
OUTRO: over A and D

Important: The song above is NOT stored on the Chordie server. The original song is hosted at www.guitartabs.cc. Chordie works as a search engine and provides on-the-fly formatting. Chordie does not index songs against artists'/composers' will. To remove this song please click here.

Text color:
Chord color:
Chord grids: 
Font size:    
Page size: 

A C# D
Rate #1 of 2 versions

Jango Player

Login - add to songbook

SHARE PAGE  



You need to log in to post comments