Guitar Tabs, Chords and Lyrics
Server problems seems to be fixed. Chordie has been experiencing problems with songs disappearing. These issues now seems to be fixed, but still verifying the fix. If you find anything strange, please email admin@chordie.com.


Zusammen  Slime

Slime - Zusammen
By: malle
Band: Slime
Album: Schweineherbst
Leadguitar - Elf ; Rythmguitar - Christian
official website: www.Slime.de
intro: E C G d +
 
 ---2h3p2--0----------------------------|
 ---------------------------------------|
 ---------------------------------------| (2x)
 ---------------------------------------|
 ---------------------------------------|
 ---------------------------------------|
 ---------------------------------7--10/12---10-7-----------5--5h7-8---7-----5--------3h5-3h5-3h5--3|
 7---4----------------------4-2-4-------------------------------------------------------------------|
 ---------------------------------------------------------------------------------------------------|
 ---------------------------------------------------------------------------------------------------|
 -----------------------------------------------|
 -----------------------------------------------|
 -----------------------------------------------|
 ---0-------------------------------------------|
 ------3--2-2--0----3-2-0-----------------------|
 ---------------------------3-------------------|

Verse:
 
 -----------------------------|
 -----------------------------|
 -----------------------------| C G (6x)
 --2---2-----------2----------|
 --2---2--2--2-----2--2--2----|
 --0---0--2--3-----0--2--3----|

Bridge:
A C h E C h A C h G (d)
Regfrain: E C G d (2x) +
h C d E C
 
 -----------------------------------------------|
 -----------------------------------------------|
 -----------------------------------------------|
 ---0-------------------------------------------|
 ------3--2-2--0----3-2-0-----------------------|
 ---------------------------3-------------------|

Verse:
 
 -----------------------------|
 -----------------------------|
 -----------------------------| C G (6x)
 --2---2-----------2----------|
 --2---2--2--2-----2--2--2----|
 --0---0--2--3-----0--2--3----|

Solo:
( Tab from: http://www.guitartabs.cc/tabs/s/slime/zusammen_tab.html )
 
 ----------------------------------------------------------------|
 -5--5h7-8--7-----5------10b12---10-8-7--------------------------|
 --------------7-----4-------------------7--7h9----9-9-7-----9---|
 ----------------------------------------------------------9-----|
 ----------------------------------------------------------------|
 ----------------------------------------------------------------|
 -/12----------7-10-10b12--10-7-----------|
 -/12--(4x)-------------------------------|
 -----------------------------------------|
 -----------------------------------------|
 -----------------------------------------|
 -----------------------------------------|

(solo ending)
 
 --------------7--------------------|
 -----8br------8--------------------|
 -----------------------------------|
 -----------------------------------|
 -----------------------------------|
 -----------------------------------|

(the other guitar plays this during the solo ending)
 
 -----------------------------------------------|
 -----------------------------------------------|
 -----------------------------------------------|
 ---0-------------------------------------------|
 ------3--2-2--0----3-2-0-----------------------|
 --------------------------3--------------------|

Interlude: E C G d +
 
 ---2h3p2--0----------------------------|
 ---------------------------------------|
 ---------------------------------------| (4x)
 ---------------------------------------|
 ---------------------------------------|
 ---------------------------------------|
 -----------------------------------------------|
 -----------------------------------------------|
 -----------------------------------------------|
 ---0-------------------------------------------|
 ------3--2-2--0----3-2-0-----------------------|
 ---------------------------3-------------------|

Refrain:
E C G d (3x) +
[E] [C]  
 
 -----------------------------------------------|
 -----------------------------------------------|
 -----------------------------------------------|
 ---0-------------------------------------------|
 ------3--2-2--0----3-2-0-----------------------|
 --------------------------3--------------------|

this refrain is played 3 times and ends with this:
 
 --------7--------------|
 --------8--------------|
 --------9--------------|
 -----------------------|
 -----------------------|
 -----------------------|

I'm sure it's the right tab so i hope you enjoy it

Important: The song above is NOT stored on the Chordie server. The original song is hosted at www.guitartabs.cc. Chordie works as a search engine and provides on-the-fly formatting. Chordie does not index songs against artists'/composers' will. To remove this song please click here.

Text color:
Chord color:
Chord grids: 
Font size:    
Page size: 

C E
Rate #1 of 3 versions

Jango Player

Login - add to songbook

SHARE PAGE  



You need to log in to post comments