Guitar Tabs, Chords and Lyrics
Server problems seems to be fixed. Chordie has been experiencing problems with songs disappearing. These issues now seems to be fixed, but still verifying the fix. If you find anything strange, please email admin@chordie.com.


Appels + Oranjes  The Smashing Pumpkins

================================================================================
S M A S H I N G P U M P K I N S
[-] 
A P P E L S + O R A N J E S
================================================================================
ADORE
(c) Virgin Records (1998)
http://www.smashingpumpkins.com/
Tune Down a 1/2 Step
[D#] [G#] [C#] [F#] 
Tempo = 114 BPM
Time Signature = 4/4
 
 -----------------------------

Transcribed by
PADDY MCMULLAN
pmtabs (@t) gmail [dot] com
Version 1.0
29th December 2010
 
 -----------------------

================================================================================
Part 1: [ 00:00 - 00:47 ]
================================================================================
Rest for 2 bars
 
 ||---------------------|---------------------|---------------------|
 ||---------------------|---------------------|---------------------|
 ||---------------------|---------------------|---------------------|
 ||--2--------2--2------|--5--------5--5------|--0--------0--0------|
 |---------------------|---------------------| |
 |---------------------|---------------------|*|
 |---------------------|---------------------|*| x 4
 |--4--------4--4------|--7--------7--7------| |

================================================================================
Part 2: [ Time 00:47 - 01:08 ]
================================================================================
 
 ||---------------------|---------------------|---------------------|
 ||---------------------|---------------------|---------------------|
 ||---------------------|---------------------|---------------------|
 ||--7--------7--7------|--5--------5--5------|--4--------4--4------|
 |---------------------|---------------------|---------------------|
 |---------------------|---------------------|---------------------|
 |---------------------|---------------------|---------------------|
 |--7--------7--7------|--7--------7--7------|--5--------5--5------|
 |---------------------|---------------------|---------------------|
 |---------------------|---------------------|---------------------|
 |---------------------|---------------------|---------------------|
 |--4--------4--4------|--0--------0--0------|--4--------4--4------|
 |---------------------| |
 |---------------------|*|
 |---------------------|*|
 |--7--------7--7------| |

================================================================================
Part 3: Repeat Part 1 twice [ Time 01:08 - 01:29 ]
================================================================================
================================================================================
Part 4: [ Time 01:29 - 01:51 ]
================================================================================
[ Tab from: bttp://www.guitartabs.cc/tabs/s/smasbing_pumpkins/appels_oranjes_btab.btml ] 
 
 ||---------------------|---------------------|---------------------|
 ||---------------------|---------------------|---------------------|
 ||---------------------|---------------------|---------------------|
 ||--7--------7--7------|--5--------5--5------|--4--------4--4------|
 |---------------------|---------------------|---------------------|
 |---------------------|---------------------|---------------------|
 |---------------------|---------------------|---------------------|
 |--0--------0--0------|--4--------4--4------|--7--------7--7------|
 |---------------------|---------------------|---------------------|
 |---------------------|---------------------|---------------------|
 |---------------------|---------------------|---------------------|
 |--7--------7--7------|--5--------5--5------|--4--------4--4------|
 |---------------------||
 |---------------------||
 |---------------------||
 |--7--------7--7------||

================================================================================
Part 5: [ Time 01:51 - 02:14 ]
================================================================================
 
 ||-----------------------|-----------------------|
 ||-----------------------|-----------------------|
 ||-----------------------|-----------------------|
 ||--5------5----5--5--5--|--4------4----4--4--4--|
 |-----------------------|-----------------------|-----------------------|
 |-----------------------|-----------------------|-----------------------|
 |-----------------------|-----------------------|-----------------------|
 |--7------7----7--7--7--|--7------7----7--7--7--|--5------5----5--5--5--|
 |-----------------------|-----------------------|-----------------------|
 |-----------------------|-----------------------|-----------------------|
 |-----------------------|-----------------------|-----------------------|
 |--4------4----4--4--4--|--7------7----7--7--7--|--7------7----7--7--5--|
 |-----------------------|-----------------------|-----------------------||
 |-----------------------|-----------------------|-----------------------||
 |-----------------------|-----------------------|-----------------------||
 |--5------5----5--5--5--|--4------4----4--4--4--|--0------0----0--0--0--||

================================================================================
Part 8: Repeat Part 1 twice [ Time 02:14 - 02:35 ]
================================================================================
================================================================================
Part 9: Repeat Part 2 twice [ Time 02:35 - 02:57 ]
================================================================================
================================================================================
Part 10: Repeat Part 5 twice [ Time 02:57 - 03:36 ]
================================================================================
Repeat the last bar of Part 5 a further 4 times
================================================================================
[End]================================================================================
Tab summary: Part 1
Part 2
Part 3
Part 4
Part 5
Part 6
Part 7
Part 8
Part 9
Part 10
END

Important: The song above is NOT stored on the Chordie server. The original song is hosted at www.guitartabs.cc. Chordie works as a search engine and provides on-the-fly formatting. Chordie does not index songs against artists'/composers' will. To remove this song please click here.

Text color:
Chord color:
Chord grids: 
Font size:    
Page size: 

C# D# F# G#
Rate #1 of 8 versions

Login - add to songbook

SHARE PAGE  



You need to log in to post comments