Guitar Tabs, Chords and Lyrics
Major upgrade!! After one year development the new version of Chordie is now online! Please give feedback.


Mayonaise  The Smashing Pumpkins

submitted by m. burgess
Tune or Capo up 1/2 Step: F Bb Eb Ab C F
Chord Fingerings:
E| [A]0 [Bm7]2 [D]2 [G]3 [Bm]2 [E]0 [F#m]2
B| 2 3 3 3 3 0 2
G| 2 2 2 0 4 1 2
D| 2 4 0 0 4 2 4
A| 0 2 x 2 2 2 4
E| x x x 3 x 0 2
Fig1 (Intro, Guitar 1)
[A] [Bm7]  
 
 |---------------------------------------------------------------------|
 |-----0---2---0---------0---2---0-----------5---2------------5---2----|
 |-----------2---0-------------2---0-----2-----2---2------2-----2---2--|
 |---2---2------------2----2-----------4---4------------4---4----------|
 |-0----------------0----------------2----------------2----------------|
 |---------------------------------------------------------------------|

Fig2 (Intro, Guitar 2)
[A] [Bm7]  
 
 |--------------------------------------------------------------0----|
 |------------0-2--0-0-2-------------------2-0-2-0-2-0---------------|
 |--0-2--0-2---------------------------0-2--------------2---2--------|
 |-------------------------4-0-2-0-2---------------------------------|
 |------------------------------------0------------------------------|
 |-------------------------------------------------------------------|

Fig 3 (Cont. Intro, Guitar 2)
[Bm7] [D] [Bm7] [D] [Asus2] [F#m]  
 
 |--0----------------------------------------------------------------------12----------------------|
 |----3-2-3-2---0-2-0---0-0-2----------------------------------------------------------------------|
 |----------------------2------------9-7-6-7-6-7-9-7-6-7-6-7-9--11--9---------6-7-9---6-7-6--------|
 |-------------------------------4----------------------------------------------7-------7----------|
 |------------------------------------------------------------------------------7-------7----------|
 |------------------------------------------------------------------------------5-------5----------|

Fig4 (add this after all of the D chords in the intro and verses)
 
 A|--4-5-4----| or G|--6-7-6----|

Fig5 (guitar solo)
 
 |--------------------------------------------------------------------|
 |--------------------------------------------------------------------|
 |--------------------------------------------------------------------|
 |-------------------4-5-5-5-5-7-7-5-5-4-5-4-2-4----------------------|
 |-5-7-7-7-7-9-9-9---------------------------------4----0-2-2-2-------|
 |------------------------------------------------------------------0-|
 |----------------------------------------------------------------------------|
 |----------------------------------------------------------------------------|
 |----------------------------------------------------------------------------|
 |----------------------------------------------5-4---4---7--5-4----9---------|
 |----0-2--0-7---5---------------------------------7---7--------5-------5-----|
 |-0-2--------------7-7--5--0-2-0-2-2-2--0------------------------------------|

( Tab from: http://www.guitartabs.cc/tabs/s/smashing_pumpkins/mayonaise_tab_ver_2.html )
Fig6 (Ending, Guitar 2)
 
 |-------------0----2-0--------5----2-2-5-2----|
 |------3-2-------------2-2-3---------------5--|
 |-0-2------2----------------------------------|
 |---------------------------------------------|
 |---------------------------------------------|
 |---------------------------------------------|

Intro
Fig 1&2 >2x over:
|A |A |Bm |Bm |
Fig 2 over:
|Bm7|D |Bm7 |D |
|A |F#m |D |D |
(distortion)
|A |F#m |D |D |
|A |F#m |D |D |
[A]Fool enough to almost be it [F#m]Cool enough to not quite see it
[D]Doomed[D]
[A]Pick your pockets full of sorrow and [F#m]run away with me tomorrow
[D]June[D]
We'll [Bm]try and [G]ease the [D]pain
some[Bm]how we'll [G]feel the [D]same
[E]no [F#m]one k[D]nows [E]where our [F#m]secrets [G]go
[A]I sing a heart to all my dearies [F#m]When your life is so so dreary
[D]Dream[D]
[A]I'm rumored to the straight and narrow [F#m]While the harlots of my perils
[D]Scream[D]
[A]And I [F#m]fail but [D]when I can I [D]will
[A]Try to und[F#m]erstand that when [D]I can I [D]will
Solo
|D |A |D |A |Bm |D |G F#m |E |
[A]Mother weep the tears I'm missin [F#m]All our time can't be given
[D]Back [D]
[A]Shot my mouth and strike the demons [F#m]That cursed you and your reasons
[D]Out of hand and out of season
[D]Out of love and out of feeling
[A]So [F#m]Bad
When I [D]can I wi[D]ll
[A]Words defy the [F#m]plans
When I [D]can I wi[D]ll
[A]Fool enough to almost be it [F#m]Cool enough to not quite see it
[D]And dull enough to always feel it
[D]Always old I always feel this
[A]No more promise no more sorrow [F#m]No longer will I follow
[D]Can anybody hear me
[D]I just want to [A]be [F#m]me
And when I [D]can I wi[D]ll
[A]Try to unders[F#m]tand
That when I [D]can I wi[D]ll
Fig1,6 over:
|A |Bm |A |Bm|
|A |Bm |

Important: The song above is NOT stored on the Chordie server. The original song is hosted at www.guitartabs.cc. Chordie works as a search engine and provides on-the-fly formatting. Chordie does not index songs against artists'/composers' will. To remove this song please click here.

Text color:
Chord color:
Chord grids: 
Font size:    
Page size: 

A Asus2 Bm Bm7 D E F#m G
Rate #2 of 21 versions

Jango Player

Login - add to songbook

SHARE PAGE  



You need to log in to post comments