Guitar Tabs, Chords and Lyrics
Major upgrade!! After one year development the new version of Chordie is now online! Please give feedback.


Saturnine  The Smashing Pumpkins

Band: The Smashing Pumpkins
Song: Saturnine
Album: Machina 2/Friends and Enamie of modern music
Tuning:E,A,D,G,B,E
CHORDS
[Em] [G5] [C5] [Asus] [D5] [Dm] [C] [E5]  
 
 |-x---x---x---x---x---2--0--0-|
 |-x---x---x---x---x---3--1--0-|
 |-x---x---5---2---7---2--0--0-|
 |-2---5---5---2---7---0--2--2-|
 |-2---5---3---0---5---x--3--2-|
 |-0---3---x---x---x---x--x--0-|

OK. [Em] to the ages I am speaking (to the) [G5]creatures_ I am sky___[Em]__
[C5]bloody simple [Asus]features [D5]everyone chooses [D5]sides__[Asus]__
we are in[D]side, we are in[E5]side now, we are in[D]side, we are in[C]side
 
 |---------------------------------------------------------------|

|saturnine how I love to wast your time, saturnine, saturnine |
|goodbye all you widows tearstained underneath |
|blessed to the many who are seeking some relief |
| |
 
 | |-----------------| |
 | |-----------------| |
 | |-----------------|6x |
 | |-----------------| |
 | |-----------------| |
 | |-0-/7-\5-/10-/12-| |
 |---------------------------------------------------------------|

satur[Dm]nine how I [E5]love to waste you time, satur[Dm]nine, satur[E5]nine
satur[Dm]nine you are [C]waiting on the sign
[Em]camera take this picture the [C5]wreckage is outside__[Em]__
we [C]here are [C]forgotten we are [Dm]loosing our [C]light
we are in[Dm]side, we are in[E5]side now, we are [Dm]inside, we are i[E5]nside
you've always [Dm]run but you've never [C]find
 
 |--------------------------------------------------------0-|
 |--------------------------------------------------------0-|
 |--------------------------------------------------------0-|
 |--------------------------------------------------------2-|
 |--------------------------------------------------------2-|
 |-\7-\5-/7-\5-\3-\2-/7-\5-/7-\5-\3-\2-/7-\5-/7-\5-\3-\2--0-|
 |----------------------------------------------------------|
 |----------------------------------------------------------|
 |----------------------------------------------------------|
 |--------------------------------------------------------0-|
 |-------------------------------------------------/5-\4--2-|
 |-/9-\7-/9-\7-\5-\4-/9-\7-\9-/7-\5-\4-/9-\7-/9-\7--------2-|

(note: I was not realy sure about the manes of the CHORDS)

Important: The song above is NOT stored on the Chordie server. The original song is hosted at www.guitartabs.cc. Chordie works as a search engine and provides on-the-fly formatting. Chordie does not index songs against artists'/composers' will. To remove this song please click here.

Text color:
Chord color:
Chord grids: 
Font size:    
Page size: 

Asus C C5 D D5 Dm E5 Em G5
Rate #1 of 2 versions

Jango Player

Login - add to songbook

SHARE PAGE  



You need to log in to post comments