Guitar Tabs, Chords and Lyrics
Major upgrade!! After one year development the new version of Chordie is now online! Please give feedback.


Last Night I Dreamt That Somebody Loved Me  The Smiths

The Smiths ? Last Night I Dreamt that Somebody Loved Me
Guitar Tab by Ben Tindall
The Original Song was played with the guitar tuned up 1 whole step but you can play in
with a capo at the second fret.
[Em] [C]  
 
 E----------------0---------------5-----0------|-------------------------6-----5--------|
 B------------6-----6------8--------------6---|-----------6---------6------------8---6--|
 G--------7------------7------7----7----------|-------7---------7-----------------------|
 D---0-----------------------------------------|----8---------8-------------------------|
 A----------------------------------------------|---------------------------------------|
 E----------------------------------------------|---------------------------------------|

[Cm] [Bm7] [B7]  
 
 E-------------3-----------4----------3--------|---0--------------------------0-------|
 B---2-----------2-----------2----------2-----|-------1---------------2---------2-----|
 G--------3---------3-----------3----------3--|----------0--------0----------------2--|
 D----------------------------------------------|----------------2--------------------|
 A----------------------------------------------|------------0------------------------|
 E-----------------------------------------------|------------------------------------|

This basically repeats throughout the entire song.
You can also strum the bar chords:
[Em] [C] [Cm] [Bm7] [B7]  
 
 E---7- ---8-- ---8-- ---2-- ---2-----|
 B---8- ---8-- ---8-- ---3- ---4------|
 G---9- ---9-- ---8-- ---2--- ---2----|
 D---9- --10-- ---10-- ---4-- ---4----|
 A---7- ---10-- ---10-- ---2-- ---2---|
 E---x- ----8-- ---8-- ---x-- ---x----|


Important: The song above is NOT stored on the Chordie server. The original song is hosted at www.guitartabs.cc. Chordie works as a search engine and provides on-the-fly formatting. Chordie does not index songs against artists'/composers' will. To remove this song please click here.

Text color:
Chord color:
Chord grids: 
Font size:    
Page size: 

B7 Bm7 C Cm Em
Rate #1 of 6 versions

Login - add to songbook

SHARE PAGE  



You need to log in to post comments