Guitar Tabs, Chords and Lyrics
Major upgrade!! After one year development the new version of Chordie is now online! Please give feedback.


Reel Around the Fountain   The Smiths

 
 G |--------------------------------|--------------------------------|
 D |--------------------------------|--------------------------------|
 A |-(Drum intro)-------------------|--------------------------------|
 E |--------------------------------|-------------------------------2|

 


 


 [00:09] Verse A


 

 
 G |--------------------------------|--------------------------------|
 D |--------------------------------|-2-----2-2-----2-2-----2-2------|
 A |-0-----0-0-----0-0-----4---5----|-----------------------------4-4|
 E |--------------------------------|--------------------------------|
 G |--------------------------------|--------------------------------|
 D |-------4-4----------------------|--------------------------------|
 A |-----------4-------5-------5-4--|-0-----0-0-----0-0-----0---0-0--|
 E |-2---2---------2-2-------------2|-------------------------------2|
 G |--------------------------------|--------------------------------|
 D |--------------------------------|-2-----2-2-----2-2-----2-2---4-4|
 A |-0-----0-0-----0-0-----4---5----|--------------------------------|
 E |--------------------------------|--------------------------------|
 G |--------------------------------|--------------------------------|
 D |-4---4-4-4----------------------|--------------------------------|
 A |-----------4-------5-------5-4--|-0-----0-0-----0-0-------0------|
 E |---------------2-2-------------2|-----------------------2-----4--|

 


 


 [00:44] Chorus


 

 
 G |--------------------------------|--------------------------------|
 D |--------------------------------|--------------------------------|
 A |--------------------------------|-2-----2-----0---2-----2-2---0--|
 E |-3-----3-3-----2-2-----2-2------|---------2-----2---------------2|
 G |--------------------------------|--------------------------------|
 D |--------------------------------|-4-----4-4-----4-4-------2---2--|
 A |-------------------------------4|-----------------------4--------|
 E |-3-----3-3-----3-3-----3-3------|--------------------------------|

 


 [ Tab from: bttp://www.guitartabs.cc/tabs/s/smitbs/reel_around_tbe_fountain_btab.btml ] 


 [01:02] Verse B


 

 
 G |--------------------------------|--------------------------------|
 D |-----------------2--------------|-----------------2--------------|
 A |-0-----4-5-----4----------------|-0-----0-0-----0---------5---4-2|
 E |-----------------------2----2--4|--------------------------------|

 


 


 [01:10] Verse B


 

 
 G |-------2------------------------|--------------------------------|
 D |-----------2--------------------|---------------------------2---2|
 A |-0---0-------0---------------2-4|-5---5---5-0-----0-5---5-0------|
 E |-----------------4-4-----4-4----|---------------2----------------|

 


 


 [01:19] Verse B


 

 
 G |--------------------------------|--------------------------------|
 D |-----------------2--------------|-----------------2--------------|
 A |-0-----4-5-----4----------------|-0-----0-0-----0---------5---4-2|
 E |-----------------------2----2--4|--------------------------------|

 


 


 [01:28] Verse B


 

 
 G |-------2------------------------|--------------------------------|
 D |-----------2--------------------|--------------------------------|
 A |-0---0-------0---------------2-4|-5---5---5-0-----0-5---5-0---0-2|
 E |-----------------4-4-----4-4----|---------------2-----------2----|

 


 


 [01:36] Verse B


 

 
 G |--------------------------------|--------------------------------|
 D |--------------------------------|--------------------------------|
 A |-2---2-----0-----2---2-------2-0|-5---5---5-0-----0-5---5-0---0-2|
 E |-------2-----2---------2--------|---------------2-----------2----|

 


 


 [01:46] Verse B


 

 
 G |--------------------------------|--------------------------------|
 D |--------------------------------|--------------------------------|
 A |-2---2-----0-----2---2-------2-0|-5---5---5-0-----0-5---5-0---0-2|
 E |-------2-----2---------2--------|---------------2-----------2----|

 


 


 [01:55] Verse B


 

 
 G |--------------------------------|--------------------------------|
 D |--------------------------------|-------------------2---2-2------|
 A |-2---2-----0-----2---2-------2-0|-5---5---5-0-----2--------------|
 E |-------2-----2---------2--------|---------------2---------------2|


Important: The song above is NOT stored on the Chordie server. The original song is hosted at www.guitartabs.cc. Chordie works as a search engine and provides on-the-fly formatting. Chordie does not index songs against artists'/composers' will. To remove this song please click here.

This song is displayed as text-only. Transposing and tuning is only available for chordpro-songs.
Rate #1 of 13 versions

Login - add to songbook

SHARE PAGE  




You need to log in to post comments