Guitar Tabs, Chords and Lyrics
Server problems seems to be fixed. Chordie has been experiencing problems with songs disappearing. These issues now seems to be fixed, but still verifying the fix. If you find anything strange, please email admin@chordie.com.


Chasing Cars  Snow Patrol

 
 ----------------------------------------------------------------------------

CHASING CARS - Snow Patrol
 
 ----------------------------------------------------------------------------

Tabbed by: J. Baguley
Email: wizb@hotmail.com
A x02220
E6 022120
Dsus2 xx0230
[A]We'll do it [E6]all, everyt[Dsus2]hing, on our own.[A]
[A]We don't ne[E6]ed any[Dsus2]thing, or anyone.[A]
If I lay [A]here, if I just [E6]lay here
[A]Would you lie [Dsus2]with me, and just forget the world.[A]
[A]I don't quite k[E6]now how to [Dsus2]say how I feel[A]
[A]Those three word[E6]s, I said too mu[Dsus2]ch, but not enough.[A]
If I lay [A]here, if I just [E6]lay here
[A]Would you lie [Dsus2]with me, and just forget the world.[A]
Forget what we're told, before we get [E6]too old
Show me a g[Dsus2]arden that's bursting into life.[A]
[A]Let's waste time[E6], chasing car[Dsus2]s, around our heads.[A]
[A]I need your grac[E6]e to remind me[Dsus2], to find my own.[A]
( Tab from: http://www.guitartabs.cc/tabs/s/snow_patrol/chasing_cars_crd_ver_4.html )
If I lay [A]here, if I just [E6]lay here
Would you lie [Dsus2]with me, and just forget the world.[A]
[A]Forget what we're told, before we get [E6]too old
Show me a g[Dsus2]arden that's bursting into life.[A]
[A]All that I am, all that I[E6]
Is here in your [Dsus2]perfect eyes, they're all I can see[A]
[A]I don't know where, confused about [E6]how as well
just know that these [Dsus2]things will never change for us at all.[A]
If I lay [A]here, if I just [E6]lay here
Would you lie [Dsus2]with me, and just forget the world.[A]
INTRO/OUTRO - and other 'quiet' parts:
play with tab below extending playing time as necessary for each chord change
[(A)]  
 
 e|------0------0------0-----0--|
 B|-----------------------------|
 G|--2-----2------2------2------|
 D|-----------------------------|
 A|-----------------------------|
 E|-----------------------------|

[(E6)]  
 
 e|------0------0------0-----0--|
 B|-----------------------------|
 G|--1-----1------1------1------|
 D|-----------------------------|
 A|-----------------------------|
 E|-----------------------------|

[(Dsus2)]  
 
 e|------0------0------0-----0--|
 B|-----------------------------|
 G|-----------------------------|
 D|--4-----4------4------4------|
 A|-----------------------------|
 E|-----------------------------|

| x Mute note
============================================================================

Important: The song above is NOT stored on the Chordie server. The original song is hosted at www.guitartabs.cc. Chordie works as a search engine and provides on-the-fly formatting. Chordie does not index songs against artists'/composers' will. To remove this song please click here.

Text color:
Chord color:
Chord grids: 
Font size:    
Page size: 

A Dsus2 E6
Rate #1 of 17 versions

Jango Player

Login - add to songbook

SHARE PAGE  




You need to log in to post comments