Guitar Tabs, Chords and Lyrics
Server problems seems to be fixed. Chordie has been experiencing problems with songs disappearing. These issues now seems to be fixed, but still verifying the fix. If you find anything strange, please email admin@chordie.com.


Ain't Your Fairytale  Sonata Arctica

Aint't your fairytale
by Sonata Arctica
E S S S S E S S S S E S S
 
 D#||-------|-------------------------------|
 A#||-------|-------------------------------|
 F#||-------|-------------------------------|
 C#||-------|--2----------2----------2------|
 G#||-------|--0--0-0-0-0-0--0-0-0-0-0--0-0-|
 D#||-------|-------------------------------|

E S S S S E S S S S E S S
 
 -------------------------------|
 -------------------------------|
 -------------------------------|
 --6----------6----------6------|
 --4--4-4-4-4-4--4-4-4-4-4--4-4-|
 -------------------------------|

E S S S S E S S S S E S S
 
 -------------------------------|
 -------------------------------|
 -------------------------------|
 -------------------------------|
 --4----------4----------4------|
 --2--2-2-2-2-2--2-2-2-2-2--2-2-|

E S S S S E S S S S E S S
 
 -------------------------------|
 -------------------------------|
 -------------------------------|
 --6----------6----------6------|
 --4--4-4-4-4-4--4-4-4-4-4--4-4-|
 -------------------------------|

E S S S S E S S S S E S S
 
 -------------------------------|
 -------------------------------|
 -------------------------------|
 --2----------2----------2------|
 --0--0-0-0-0-0--0-0-0-0-0--0-0-|
 -------------------------------|

E S S S S E S S S S E S S
 
 -------------------------------|
 -------------------------------|
 -------------------------------|
 --6----------6----------6------|
 --4--4-4-4-4-4--4-4-4-4-4--4-4-|
 -------------------------------|

E S S S S E S S S S E S S
 
 -------------------------------|
 -------------------------------|
 -------------------------------|
 --4----------4----------4------|
 --2--2-2-2-2-2--2-2-2-2-2--2-2-|
 -------------------------------|

E S S S S E S S S S E S S
 
 -------------------------------|
 -------------------------------|
 -------------------------------|
 -------------------------------|
 --2----------2----------2------|
 --0--0-0-0-0-0--0-0-0-0-0--0-0-|

E S S S S E S S S S E S S
 
 -------------------------------|
 -------------------------------|
 -------------------------------|
 --2----------2----------2------|
 --0--0-0-0-0-0--0-0-0-0-0--0-0-|
 -------------------------------|

E S S S S E S S S S E S S
 
 -------------------------------|
 -------------------------------|
 -------------------------------|
 --6----------6----------6------|
 --4--4-4-4-4-4--4-4-4-4-4--4-4-|
 -------------------------------|

E S S S S E S S S S E S S
 
 -------------------------------|
 -------------------------------|
 -------------------------------|
 -------------------------------|
 --4----------4----------4------|
 --2--2-2-2-2-2--2-2-2-2-2--2-2-|

E S S S S E S S S S E S S
 
 -------------------------------|
 -------------------------------|
 -------------------------------|
 -------------------------------|
 --2----------2----------2------|
 --0--0-0-0-0-0--0-0-0-0-0--0-0-|

E S S S S E S S S S E S S
 
 -------------------------------|
 -------------------------------|
 -------------------------------|
 --2----------2----------2------|
 --0--0-0-0-0-0--0-0-0-0-0--0-0-|
 -------------------------------|

E S S S S E S S S S E S S
 
 -------------------------------|
 -------------------------------|
 -------------------------------|
 --6----------6----------6------|
 --4--4-4-4-4-4--4-4-4-4-4--4-4-|
 -------------------------------|

E S S S S E S S S S E S S
 
 -------------------------------|
 -------------------------------|
 -------------------------------|
 -------------------------------|
 --4----------4----------4------|
 --2--2-2-2-2-2--2-2-2-2-2--2-2-|

S S S S S S E E E Q
 
 ----------------------------|
 ----------------------------|
 ----------------------------|
 ----------------------------|
 ----------------------------|
 --4-4-4-4-4-4-4-----4-------|

S S S S S S E E E Q
 
 ----------------------------|
 ----------------------------|
 ----------------------------|
 ----------------------------|
 ----------------------------|
 --4-4-4-4-4-4-4-----4-------|

E S S S S S S S S S S E S S
 
 ----------------------------------|
 ----------------------------------|
 ----------------------------------|
 --6------------------------6------|
 --4--4-4-4-4-4-4-7p-4-6p-4-4--4-4-|
 ----------------------------------|

E S S S S S S S S S S E S S
 
 ----------------------------------|
 ----------------------------------|
 ----------------------------------|
 --6------------------------6------|
 --4--4-4-4-4-4-4-7p-4-6p-4-4--4-4-|
 ----------------------------------|

E S S S S S S S S S S E S S
 
 ----------------------------------|
 ----------------------------------|
 ----------------------------------|
 --6------------------------6------|
 --4--4-4-4-4-4-4-7p-4-6p-4-4--4-4-|
 ----------------------------------|

Q Q Q Q
 
 ----------------------|
 ----------------------|
 ----------------------|
 --2----6----4----6----|
 --0----4----2----4----|
 ----------------------|

E S S S S S S S S S S E S S
 
 ----------------------------------|
 ----------------------------------|
 ----------------------------------|
 --6------------------------6------|
 --4--4-4-4-4-4-4-7p-4-6p-4-4--4-4-|
 ----------------------------------|

E E E S S S S S S E S S
 
 --------------------------------|
 --------------------------------|
 --------------------------------|
 --6--4--6----------------6------|
 --4--4--4--4-4-7p-4-6p-4-4--4-4-|
 --------------------------------|

E S S S S S S S S S S E S S
 
 ----------------------------------|
 ----------------------------------|
 ----------------------------------|
 --6------------------------6------|
 --4--4-4-4-4-4-4-7p-4-6p-4-4--4-4-|
 ----------------------------------|

Q Q Q Q
 
 ----------------------|
 ----------------------|
 ----------------------|
 --2----6----4---------|
 --0----4----2----6----|
 -----------------4----|

E S S S S S S S S S S S S S S
 
 ---------------------------------|
 ---------------------------------|
 ---------------------------------|
 --2------------------------------|
 --0--0-0-0-0-0-0-0-0-0-0-0-0-0-0-|
 ---------------------------------|

E S S S S S S S S S S S S S S
 
 ---------------------------------|
 ---------------------------------|
 ---------------------------------|
 --4------------------------------|
 --2--2-2-2-2-2-2-2-2-2-2-2-2-2-2-|
 ---------------------------------|

E S S S S S S S S S S S S S S
 
 ---------------------------------|
 ---------------------------------|
 ---------------------------------|
 ---------------------------------|
 --2------------------------------|
 --0--0-0-0-0-0-0-0-0-0-0-0-0-0-0-|

E S S S S S S S S S S S S S S
 
 ---------------------------------|
 ---------------------------------|
 ---------------------------------|
 ---------------------------------|
 --4------------------------------|
 --2--2-2-2-2-2-2-2-2-2-2-2-2-2-2-|

E S S S S S S S S S S S S S S
 
 ---------------------------------|
 ---------------------------------|
 ---------------------------------|
 --2------------------------------|
 --0--0-0-0-0-0-0-0-0-0-0-0-0-0-0-|
 ---------------------------------|

E S S S S S S S S S S S S S S
 
 ---------------------------------|
 ---------------------------------|
 ---------------------------------|
 --4------------------------------|
 --2--2-2-2-2-2-2-2-2-2-2-2-2-2-2-|
 ---------------------------------|

E S S S S S S S S S S E S S
 
 |-----------------------------------|
 |-----------------------------------|
 |*----------------------------------|
 |*--6------------------------6------|
 |---4--4-4-4-4-4-4-7p-4-6p-4-4--4-4-|
 |-----------------------------------|

E S S S S S S S S S S E S S
 
 ----------------------------------|
 ----------------------------------|
 ----------------------------------|
 --6------------------------6------|
 --4--4-4-4-4-4-4-7p-4-6p-4-4--4-4-|
 ----------------------------------|

E S S S S S S S S S S E S S
 
 ----------------------------------|
 ----------------------------------|
 ----------------------------------|
 --6------------------------6------|
 --4--4-4-4-4-4-4-7p-4-6p-4-4--4-4-|
 ----------------------------------|

Q Q Q Q
 
 ----------------------|
 ----------------------|
 ----------------------|
 --2----6----4----6----|
 --0----4----2----4----|
 ----------------------|

E S S S S S S S S S S E S S
 
 ----------------------------------|
 ----------------------------------|
 ----------------------------------|
 --6------------------------6------|
 --4--4-4-4-4-4-4-7p-4-6p-4-4--4-4-|
 ----------------------------------|

E E E S S S S S S E S S
 
 --------------------------------|
 --------------------------------|
 --------------------------------|
 --6--4--6----------------6------|
 --4--4--4--4-4-7p-4-6p-4-4--4-4-|
 --------------------------------|

E S S S S S S S S S S E S S
 
 ----------------------------------|
 ----------------------------------|
 ----------------------------------|
 --6------------------------6------|
 --4--4-4-4-4-4-4-7p-4-6p-4-4--4-4-|
 ----------------------------------|

Q Q Q Q
 
 ----------------------|
 ----------------------|
 ----------------------|
 --2----6----4---------|
 --0----4----2----6----|
 -----------------4----|

E S S S S S S S S S S S S S S
 
 ---------------------------------|
 ---------------------------------|
 ---------------------------------|
 --2------------------------------|
 --0--0-0-0-0-0-0-0-0-0-0-0-0-0-0-|
 ---------------------------------|

E S S S S S S S S S S S S S S
 
 ---------------------------------|
 ---------------------------------|
 ---------------------------------|
 --4------------------------------|
 --2--2-2-2-2-2-2-2-2-2-2-2-2-2-2-|
 ---------------------------------|

E S S S S S S S S S S S S S S
 
 ---------------------------------|
 ---------------------------------|
 ---------------------------------|
 ---------------------------------|
 --2------------------------------|
 --0--0-0-0-0-0-0-0-0-0-0-0-0-0-0-|

E S S S S S S S S S S S S S S
 
 ---------------------------------|
 ---------------------------------|
 ---------------------------------|
 ---------------------------------|
 --4------------------------------|
 --2--2-2-2-2-2-2-2-2-2-2-2-2-2-2-|

E S S S S S S S S S S S S S S
 
 ---------------------------------|
 ---------------------------------|
 ---------------------------------|
 --2------------------------------|
 --0--0-0-0-0-0-0-0-0-0-0-0-0-0-0-|
 ---------------------------------|

E S S S S S S S S S S S S S S
 
 ---------------------------------|
 ---------------------------------|
 ---------------------------------|
 --4------------------------------|
 --2--2-2-2-2-2-2-2-2-2-2-2-2-2-2-|
 ---------------------------------|

E S S S S S S E S S S S S S
 
 --------------------------------|
 --------------------------------|
 --------------------------------|
 --------------------------------|
 --6--------------6--------------|
 --4--4-4-4-4-4-4-4--4-4-4-4-4-4-|

E S S S S S S E S S E S S
 
 -------------------------------|
 -------------------------------|
 -------------------------------|
 -------------------------------|
 --6--------------6------6------|
 --4--4-4-4-4-4-4-4--4-4-4--4-4-|

W W
 
 -------------------|-------------------|
 -------------------|-------------------|
 --2----------------|--4----------------|
 --2----------------|--4----------------|
 --0----------------|--2----------------|
 -------------------|-------------------|

[B] [B] [B] [B]  
 
 --------------------|--------------------|
 --------------------|--------------------|
 --9--------8--------|--6--------4--------|
 --9--------9--------|--6--------4--------|
 --7--------6--------|--4--------2--------|
 --------------------|--------------------|

W W
 
 -------------------|-------------------|
 -------------------|-------------------|
 --2----------------|--4----------------|
 --2----------------|--4----------------|
 --0----------------|--2----------------|
 -------------------|-------------------|

W W
 
 -------------------|-------------------|
 -------------------|-------------------|
 -------------------|-------------------|
 --6----------------|--6----------------|
 --6----------------|--6----------------|
 --4----------------|--4----------------|

W W
 
 -------------------|-------------------|
 -------------------|-------------------|
 --2----------------|--4----------------|
 --2----------------|--4----------------|
 --0----------------|--2----------------|
 -------------------|-------------------|

[B] [B] [B] [B]  
 
 --------------------|--------------------|
 --------------------|--------------------|
 --9--------8--------|--6--------4--------|
 --9--------9--------|--6--------4--------|
 --7--------6--------|--4--------2--------|
 --------------------|--------------------|

W W
 
 -------------------|-------------------|
 -------------------|-------------------|
 --2----------------|--4----------------|
 --2----------------|--4----------------|
 --0----------------|--2----------------|
 -------------------|-------------------|

W W
 
 -------------------|-------------------|
 -------------------|-------------------|
 -------------------|-------------------|
 --6----------------|--6----------------|
 --6----------------|--6----------------|
 --4----------------|--4----------------|

Q. E Q Q
 
 -----------------------||
 -----------------------||
 ----------------------*||
 --6------6--4----6----*||
 --4------4--2----4-----||
 -----------------------||

PM PM
E E E E Q Q
 
 ------------------------|
 ------------------------|
 ------------------------|
 --6--6--6--6--4----6----|
 --4--4--4--4--2----4----|
 ------------------------|

PM PM
Q E E Q Q
 
 -----------------------|
 -----------------------|
 --4--------------------|
 --2----6--6--4----6----|
 -------4--4--2----4----|
 -----------------------|

PM PM
E E E E Q Q
 
 ------------------------|
 ------------------------|
 ------------------------|
 --6--6--6--6--4----6----|
 --4--4--4--4--2----4----|
 ------------------------|

PM PM
Q E E Q Q
 
 -----------------------|
 -----------------------|
 --6--------------------|
 --4----6--6--4----6----|
 -------4--4--2----4----|
 -----------------------|

PM PM
E E E E Q Q
 
 ------------------------|
 ------------------------|
 ------------------------|
 --6--6--6--6--4----6----|
 --4--4--4--4--2----4----|
 ------------------------|

PM PM
Q E E Q Q
 
 -----------------------|
 -----------------------|
 --4--------------------|
 --2----6--6--4----6----|
 -------4--4--2----4----|
 -----------------------|

PM PM
Q E E Q Q
 
 -----------------------|
 -----------------------|
 --4--------------------|
 --2----6--6--4----6----|
 -------4--4--2----4----|
 -----------------------|

PM PM
Q E E Q Q
 
 -----------------------|
 -----------------------|
 --4--------------------|
 --2----6--6--4----6----|
 -------4--4--2----4----|
 -----------------------|

PM PM
E E E E Q Q
 
 ------------------------|
 ------------------------|
 ------------------------|
 --6--6--6--6--4----6----|
 --4--4--4--4--2----4----|
 ------------------------|

PM PM
Q E E Q Q
 
 -----------------------|
 -----------------------|
 --4--------------------|
 --2----6--6--4----6----|
 -------4--4--2----4----|
 -----------------------|

PM PM
E E E E Q Q
 
 ------------------------|
 ------------------------|
 ------------------------|
 --6--6--6--6--4----6----|
 --4--4--4--4--2----4----|
 ------------------------|

PM PM
Q E E Q Q
 
 -----------------------|
 -----------------------|
 --6--------------------|
 --4----6--6--4----6----|
 -------4--4--2----4----|
 -----------------------|

PM PM
E E E E Q Q
 
 ------------------------|
 ------------------------|
 ------------------------|
 --6--6--6--6--4----6----|
 --4--4--4--4--2----4----|
 ------------------------|

PM PM
Q E E Q Q
 
 -----------------------|
 -----------------------|
 --4--------------------|
 --2----6--6--4----6----|
 -------4--4--2----4----|
 -----------------------|

PM PM
Q E E Q Q
 
 -----------------------|
 -----------------------|
 --4--------------------|
 --2----6--6--4----6----|
 -------4--4--2----4----|
 -----------------------|

PM PM
Q E E Q Q
 
 -----------------------|
 -----------------------|
 --6--------------------|
 --4----6--6--4----6----|
 -------4--4--2----4----|
 -----------------------|

W W
 
 |--------------------|-------------------|
 |--------------------|-------------------|
 |*-------------------|-------------------|
 |*--2----------------|--6----------------|
 |---0----------------|--4----------------|
 |--------------------|-------------------|

W W
 
 -------------------|-------------------|
 -------------------|-------------------|
 -------------------|-------------------|
 -------------------|--6----------------|
 --4----------------|--4----------------|
 --2----------------|-------------------|

W W
 
 -------------------|-------------------|
 -------------------|-------------------|
 -------------------|-------------------|
 --2----------------|--6----------------|
 --0----------------|--4----------------|
 -------------------|-------------------|

W W
 
 -------------------|-------------------|
 -------------------|-------------------|
 -------------------|-------------------|
 --4----------------|-------------------|
 --2----------------|--2----------------|
 -------------------|--0----------------|

W W
 
 -------------------|-------------------|
 -------------------|-------------------|
 -------------------|-------------------|
 --2----------------|--6----------------|
 --0----------------|--4----------------|
 -------------------|-------------------|

W W
 
 -------------------|-------------------|
 -------------------|-------------------|
 -------------------|-------------------|
 -------------------|-------------------|
 --4----------------|--2----------------|
 --2----------------|--0----------------|

W W
 
 -------------------|-------------------|
 -------------------|-------------------|
 -------------------|-------------------|
 --2----------------|--6----------------|
 --0----------------|--4----------------|
 -------------------|-------------------|

W W
 
 -------------------|-------------------|
 -------------------|-------------------|
 -------------------|-------------------|
 -------------------|-------------------|
 --4----------------|--6----------------|
 --2----------------|--4----------------|

W W
 
 -------------------|-------------------|
 -------------------|-------------------|
 -------------------|-------------------|
 -------------------|--2----------------|
 --6----------------|--0----------------|
 --4----------------|-------------------|

W W
 
 -------------------|-------------------|
 -------------------|-------------------|
 -------------------|-------------------|
 --6----------------|-------------------|
 --4----------------|--4----------------|
 -------------------|--2----------------|

W W
 
 -------------------|-------------------|
 -------------------|-------------------|
 -------------------|-------------------|
 --6----------------|--2----------------|
 --4----------------|--0----------------|
 -------------------|-------------------|

W W
 
 -------------------|-------------------|
 -------------------|-------------------|
 -------------------|-------------------|
 --6----------------|--4----------------|
 --4----------------|--2----------------|
 -------------------|-------------------|

W
 
 -------------------|
 -------------------|
 -------------------|
 -------------------|
 --2----------------|
 --0----------------|

S S S S S S S S S S S S S S
 
 --12p-9--------------------------------------
 --------12p-9-12p-9-------12p-9--------------
 --------------------11p-9-------11p-9-13p-11-
 ---------------------------------------------
 ---------------------------------------------
 ---------------------------------------------
 3 3 |----3---| |----3---| 3 3 

T S. E E E E E E E E
 
 ---------------------------------------------
 ---------------------------------------------
 --11h-13p-11---------------------------------
 --------------14p--11------------------------
 -----------------------14p--11--11s--9-------
 ----------------------------------------12--<
 |---3--| |---3--| |---3---| |---3--| 

[E] [E] [E] [E] [E] [E] [E] [E] [E] [E] [E] [E]  
 
 ---------------------------12--11--10--9-----
 -------------------12--11-----------------12-
 -----9------11--9----------------------------
 --9-----11-----------------------------------
 ---------------------------------------------
 ---------------------------------------------

PM
 
 |---3--| |---3--| |---3--| 

E E E E E E E E E Q
 
 ---------------------------------------|
 --11--9------9-------------------------|
 ---------11-----11--9--11--9------9----|
 ------------------------------11-------|
 ---------------------------------------|
 ---------------------------------------|

S S S S S S S S S S S S S S S S
 
 --16-12-14-12-------14-9-12-9------12-7-9-7-|
 --------------14-12-----------12-9----------|
 --------------------------------------------|
 --------------------------------------------|
 --------------------------------------------|
 --------------------------------------------|

PM PM SH
S S S S S S S S S S S S Q
 
 ---------------------------------------|
 --9-7-14-9-12-9------12-9--------------|
 ----------------11-9------9--11-9----|
 ---------------------------------------|
 ---------------------------------------|
 ---------------------------------------|

PM PM PM PH
 
 |---3--| |--3--| 

[E] [E] [E] [E] [E] [E] [B]  
 
 ----------------------------------|
 ----------------------------------|
 ----------------------------------|
 --11--9---------------------------|
 ---------11--9--7-----------------|
 -------------------7--9~--------|
 |-3-| |-3-| |-3-| |-3-| |-3-| |-3-| |--3-| 

S S S S S S S S S S S S S S S S S S S S S
 
 ---------------------------------------------
 ---------------------------------------------
 --------------------------------6-8-9-8-9-11-
 --------------------6-7-9-6-7-9--------------
 --------4-6-7-6-7-9--------------------------
 --4-5-7--------------------------------------

E S S S S S S S S S S E S S
 
 --9--L-L-L-L-L-L-L--L-L--L-L--L-L-|
 ----------------------------------|
 ----------------------------------|
 --6------------------------6------|
 --4--4-4-4-4-4-4-7p-4-6p-4-4--4-4-|
 ----------------------------------|

E S S S S S S S S S S E S S
 
 ----------------------------------|
 ----------------------------------|
 ----------------------------------|
 --6------------------------6------|
 --4--4-4-4-4-4-4-7p-4-6p-4-4--4-4-|
 ----------------------------------|

E S S S S S S S S S S E S S
 
 ----------------------------------|
 ----------------------------------|
 ----------------------------------|
 --6------------------------6------|
 --4--4-4-4-4-4-4-7p-4-6p-4-4--4-4-|
 ----------------------------------|

Q Q Q Q
 
 ----------------------|
 ----------------------|
 ----------------------|
 --2----6----4----6----|
 --0----4----2----4----|
 ----------------------|

S S S S S S S S S S S S S S S S
 
 ----------------------------------|
 ----------------------------------|
 ----------------------------------|
 --------4-6-4-----9-7-6---7-6-----|
 --4-6-7-------7-6-------9-----9-7-|
 ----------------------------------|

E S S S S S S S S S S E S S
 
 ----------------------------------|
 ----------------------------------|
 ----------------------------------|
 --6------------------------6------|
 --4--4-4-4-4-4-4-7p-4-6p-4-4--4-4-|
 ----------------------------------|

E E E S S S S S S E S S
 
 --------------------------------|
 --------------------------------|
 --------------------------------|
 --6--4--6----------------6------|
 --4--4--4--4-4-7p-4-6p-4-4--4-4-|
 --------------------------------|

E S S S S S S S S S S E S S
 
 ----------------------------------|
 ----------------------------------|
 ----------------------------------|
 --6------------------------6------|
 --4--4-4-4-4-4-4-7p-4-6p-4-4--4-4-|
 ----------------------------------|

Q Q Q Q
 
 ----------------------|
 ----------------------|
 ----------------------|
 --2----6----4---------|
 --0----4----2----6----|
 -----------------4----|

E S S S S S S S S S S S S S S
 
 ---------------------------------|
 ---------------------------------|
 ---------------------------------|
 --2------------------------------|
 --0--0-0-0-0-0-0-0-0-0-0-0-0-0-0-|
 ---------------------------------|

E S S S S S S S S S S S S S S
 
 ---------------------------------|
 ---------------------------------|
 ---------------------------------|
 --4------------------------------|
 --2--2-2-2-2-2-2-2-2-2-2-2-2-2-2-|
 ---------------------------------|

E S S S S S S S S S S S S S S
 
 ---------------------------------|
 ---------------------------------|
 ---------------------------------|
 ---------------------------------|
 --2------------------------------|
 --0--0-0-0-0-0-0-0-0-0-0-0-0-0-0-|

E S S S S S S S S S S S S S S
 
 ---------------------------------|
 ---------------------------------|
 ---------------------------------|
 ---------------------------------|
 --4------------------------------|
 --2--2-2-2-2-2-2-2-2-2-2-2-2-2-2-|

E S S S S S S S S S S S S S S
 
 ---------------------------------|
 ---------------------------------|
 ---------------------------------|
 --2------------------------------|
 --0--0-0-0-0-0-0-0-0-0-0-0-0-0-0-|
 ---------------------------------|

E S S S S S S S S S S S S S S
 
 ---------------------------------|
 ---------------------------------|
 ---------------------------------|
 --4------------------------------|
 --2--2-2-2-2-2-2-2-2-2-2-2-2-2-2-|
 ---------------------------------|

E S S S S S S E S S S S S S
 
 --------------------------------|
 --------------------------------|
 --------------------------------|
 --------------------------------|
 --6--------------6--------------|
 --4--4-4-4-4-4-4-4--4-4-4-4-4-4-|

E S S S S S S E S S E S S
 
 -------------------------------|
 -------------------------------|
 -------------------------------|
 -------------------------------|
 --6--------------6------6------|
 --4--4-4-4-4-4-4-4--4-4-4--4-4-|

W W
 
 -------------------|-------------------|
 -------------------|-------------------|
 --2----------------|--4----------------|
 --2----------------|--4----------------|
 --0----------------|--2----------------|
 -------------------|-------------------|

[B] [B] [B] [B]  
 
 --------------------|--------------------|
 --------------------|--------------------|
 --9--------8--------|--6--------4--------|
 --9--------9--------|--6--------4--------|
 --7--------6--------|--4--------2--------|
 --------------------|--------------------|

W W
 
 -------------------|-------------------|
 -------------------|-------------------|
 --2----------------|--4----------------|
 --2----------------|--4----------------|
 --0----------------|--2----------------|
 -------------------|-------------------|

W W
 
 -------------------|-------------------|
 -------------------|-------------------|
 -------------------|-------------------|
 --6----------------|--6----------------|
 --6----------------|--6----------------|
 --4----------------|--4----------------|

W W
 
 -------------------|-------------------|
 -------------------|-------------------|
 --2----------------|--4----------------|
 --2----------------|--4----------------|
 --0----------------|--2----------------|
 -------------------|-------------------|

[B] [B] [B] [B]  
 
 --------------------|--------------------|
 --------------------|--------------------|
 --9--------8--------|--6--------4--------|
 --9--------9--------|--6--------4--------|
 --7--------6--------|--4--------2--------|
 --------------------|--------------------|

W W
 
 -------------------|-------------------|
 -------------------|-------------------|
 --2----------------|--4----------------|
 --2----------------|--4----------------|
 --0----------------|--2----------------|
 -------------------|-------------------|

W W
 
 -------------------|-------------------|
 -------------------|-------------------|
 -------------------|-------------------|
 --6----------------|--6----------------|
 --6----------------|--6----------------|
 --4----------------|--4----------------|

E S S S S E S S S S E S S
 
 -------------------------------|
 -------------------------------|
 -------------------------------|
 --2----------2----------2------|
 --0--0-0-0-0-0--0-0-0-0-0--0-0-|
 -------------------------------|

E S S S S E S S S S E S S
 
 -------------------------------|
 -------------------------------|
 -------------------------------|
 --6----------6----------6------|
 --4--4-4-4-4-4--4-4-4-4-4--4-4-|
 -------------------------------|

E S S S S E S S S S E S S
 
 -------------------------------|
 -------------------------------|
 -------------------------------|
 -------------------------------|
 --4----------4----------4------|
 --2--2-2-2-2-2--2-2-2-2-2--2-2-|

E S S S S E S S S S E S S
 
 -------------------------------|
 -------------------------------|
 -------------------------------|
 --6----------6----------6------|
 --4--4-4-4-4-4--4-4-4-4-4--4-4-|
 -------------------------------|

E S S S S E S S S S E S S
 
 -------------------------------|
 -------------------------------|
 -------------------------------|
 --2----------2----------2------|
 --0--0-0-0-0-0--0-0-0-0-0--0-0-|
 -------------------------------|

E S S S S E S S S S E S S
 
 -------------------------------|
 -------------------------------|
 -------------------------------|
 --6----------6----------6------|
 --4--4-4-4-4-4--4-4-4-4-4--4-4-|
 -------------------------------|

E S S S S E S S S S E S S
 
 -------------------------------|
 -------------------------------|
 -------------------------------|
 --4----------4----------4------|
 --2--2-2-2-2-2--2-2-2-2-2--2-2-|
 -------------------------------|

E S S S S E S S S S E S S
 
 -------------------------------|
 -------------------------------|
 -------------------------------|
 -------------------------------|
 --2----------2----------2------|
 --0--0-0-0-0-0--0-0-0-0-0--0-0-|

E S S S S E S S S S E S S
 
 -------------------------------|
 -------------------------------|
 -------------------------------|
 --2----------2----------2------|
 --0--0-0-0-0-0--0-0-0-0-0--0-0-|
 -------------------------------|

E S S S S E S S S S E S S
 
 -------------------------------|
 -------------------------------|
 -------------------------------|
 --6----------6----------6------|
 --4--4-4-4-4-4--4-4-4-4-4--4-4-|
 -------------------------------|

E S S S S E S S S S E S S
 
 -------------------------------|
 -------------------------------|
 -------------------------------|
 -------------------------------|
 --4----------4----------4------|
 --2--2-2-2-2-2--2-2-2-2-2--2-2-|

E S S S S E S S S S E S S
 
 -------------------------------|
 -------------------------------|
 -------------------------------|
 -------------------------------|
 --2----------2----------2------|
 --0--0-0-0-0-0--0-0-0-0-0--0-0-|

E S S S S E S S S S E S S
 
 -------------------------------|
 -------------------------------|
 -------------------------------|
 --2----------2----------2------|
 --0--0-0-0-0-0--0-0-0-0-0--0-0-|
 -------------------------------|

E S S S S E S S S S E S S
 
 -------------------------------|
 -------------------------------|
 -------------------------------|
 --6----------6----------6------|
 --4--4-4-4-4-4--4-4-4-4-4--4-4-|
 -------------------------------|

E S S S S E S S S S E S S
 
 -------------------------------|
 -------------------------------|
 -------------------------------|
 -------------------------------|
 --4----------4----------4------|
 --2--2-2-2-2-2--2-2-2-2-2--2-2-|

E S S S S E S S S S E S S
 
 -------------------------------|
 -------------------------------|
 -------------------------------|
 -------------------------------|
 --6----------6----------6------|
 --4--4-4-4-4-4--4-4-4-4-4--4-4-|

E S S S S E S S S S E S S
 
 -------------------------------|
 -------------------------------|
 -------------------------------|
 -------------------------------|
 --6----------6----------6------|
 --4--4-4-4-4-4--4-4-4-4-4--4-4-|

E S S E S S E S S E S S
 
 ------------------------------|
 ------------------------------|
 ------------------------------|
 ------------------------------|
 --6------6------6------6------|
 --4--4-4-4--4-4-4--4-4-4--4-4-|

E S S S S E S S S S E S S
 
 -------------------------------|
 -------------------------------|
 -------------------------------|
 -------------------------------|
 --6----------6----------6------|
 --4--4-4-4-4-4--4-4-4-4-4--4-4-|

PM PM
E E E E Q Q
 
 |-------------------------|
 |-------------------------|
 |*------------------------|
 |*--6--6--6--6--4----6----|
 |---4--4--4--4--2----4----|
 |-------------------------|

PM PM
Q E E Q Q 3x
 
 ------------------------||
 ------------------------||
 --4--------------------*||
 --2----6--6--4----6----*||
 -------4--4--2----4-----||
 ------------------------||

PM PM
Q E E Q Q
 
 -----------------------|
 -----------------------|
 --4--------------------|
 --2----6--6--4----6----|
 -------4--4--2----4----|
 -----------------------|

PM PM
Q E E Q Q
 
 -----------------------|
 -----------------------|
 --4--------------------|
 --2----6--6--4----6----|
 -------4--4--2----4----|
 -----------------------|

PM PM
Q E E Q Q
 
 -----------------------|
 -----------------------|
 --6--------------------|
 --4----6--6--4----6----|
 -------4--4--2----4----|
 -----------------------|

PM PM
E E E E Q Q
 
 |-------------------------|
 |-------------------------|
 |*------------------------|
 |*--6--6--6--6--4----6----|
 |---4--4--4--4--2----4----|
 |-------------------------|

PM PM
Q E E Q Q 3x
 
 ------------------------||
 ------------------------||
 --4--------------------*||
 --2----6--6--4----6----*||
 -------4--4--2----4-----||
 ------------------------||

PM PM
Q E E Q Q
 
 -----------------------|
 -----------------------|
 --4--------------------|
 --2----6--6--4----6----|
 -------4--4--2----4----|
 -----------------------|

PM PM
Q E E Q Q
 
 -----------------------|
 -----------------------|
 --4--------------------|
 --2----6--6--4----6----|
 -------4--4--2----4----|
 -----------------------|

PM PM
Q E E Q Q
 
 ------------------------|
 ------------------------|
 --6---------------------|
 --4----6--6--4----6S----|
 -------4--4--2----4S----|
 ------------------------|

E E H.
 
 ---------------------|-------|-------|
 ---------------------|-------|-------|
 ---------------------|-------|-------|
 --L--x---------------|-------|-------|
 --L--x---------------|-------|-------|
 ---------------------|-------|-------|
 -------|-------|-------||
 -------|-------|-------||
 -------|-------|-------||
 -------|-------|-------||
 -------|-------|-------||
 -------|-------|-------||

Duration Legend
 
 ---------------

W - whole
H - half
Q - quarter
E - 8th
S - 16th
T - 32nd
X - 64th
. - note dotted
|-n-| - n-tuplets
Tablature Legend
 
 ----------------

L - tied note
x - dead note
g - grace note
(n) - ghost note
> - accentuded note
NH - natural harmonic
AH - artificial harmonic
TH - tapped harmonic
SH - semi harmonic
PH - pitch harmonic
h - hammer on
p - pull off
b - bend
br - bendRelease
pb - preBend
pbr - preBendRelease
brb - bendReleaseBend
\n/ - tremolo bar dip
\n - tremolo bar dive
-/n - tremolo bar Release up
/n\ - tremolo bar inverted dip
/n - tremolo bar return
-\n - tremolo bar Release down
S - shift slide
s - legato slide
/ - slide into from below or out of upwards
\ - slide into from above or out of downwards
~ - vibrato
W - wide vibrato
tr - trill
TP - tremolo picking
T - tapping
S - slap
P - pop
< - fade in
^ - brush up
v - brush down

Important: The song above is NOT stored on the Chordie server. The original song is hosted at www.guitartabs.cc. Chordie works as a search engine and provides on-the-fly formatting. Chordie does not index songs against artists'/composers' will. To remove this song please click here.

Text color:
Chord color:
Chord grids: 
Font size:    
Page size: 

B E
Rate #1 of 3 versions

Login - add to songbook

SHARE PAGE  



You need to log in to post comments