Guitar Tabs, Chords and Lyrics
Login is temporarily disabled for some users. Do not panic. Will be back in an hour or two. DO NOT REREGISTER!!


The End of This Chapter  Sonata Arctica

BUT 1ST! FEW THINGS!
-TUNE YOUR GUITAR HALF-STEP DOWN
-NOTE: THIS IS HOW I PLAY IT, AND I DONT GIVE A SHIT!
-HERES LINK TO MY COVER ON YOUTUBE (it might help :))
anyway; the link:
http://www.youtube.com/watch?v=VBZRL9RZuoA
-ENJOY!
-INTRO: (piano arng' for guitar)
 
 eb||-5---------------|-------------------|
 Bb||-5-----6---6-----|-------------------| (x3)
 Gb||-----7-------5---|---------------7-9-|
 Db||---7-----7-------|-9---7-10---10-----|
 Ab||---------------5-|-7-7------7--------|
 Eb||-5---------------|-0-----------------|

1 & 2 & 3 & 4 & 1 & 2 & 3 & 4 &
 
 eb|-----------------|-3-----------3---|
 Bb|-----------------|-3-------------3-|
 Gb|-5-------5-------|-------5\4-------|
 Db|-3---3---5---3---|-----5-----5-----|
 Ab|---------3-------|---5-------------|
 Eb|-1-------------1-|-3---------------|

[1] [+] [2] [+] [3] [+] [4] [+] [1] [+] [2] [+] [3] [+] [4] [+] 
 
 eb|-5---------8-7-5-|-----------------|
 Bb|-5---5-6---------|---------------5-| (x3)
 Gb|-7-7---7-7-------|-4---4-5---5-7---|
 Db|-----------------|-7-7---7-7-------|
 Ab|-----------------|-----------------|
 Eb|-----------------|-----------------|

[1] [+] [2] [+] [3] [+] [4] [+] [1] [+] [2] [+] [3] [+] [4] [+] 
 
 eb|-----------------|-3-----------3---|
 Bb|-----------------|-3-------------3-|
 Gb|-5-------5-------|-------5\4-------|
 Db|-3---3---5---3---|-----5-----5-----|
 Ab|---------3-------|---5-------------|
 Eb|-1-------------1-|-3---------------|

[1] [+] [2] [+] [3] [+] [4] [+] [1] [+] [2] [+] [3] [+] [4] [+] 
-VERSE I: "I gave you my time, I gave you my whole life"
 
 eb||---------------8\7-|-7-------7-------|--8---------8--------|
 Bb||------------10-----|-8-------8-------|-10--------10--------|
 Gb||-------------9-----|-----9-------9---|------10--------10---|
 Db||-5---7-9-10--------|-----------------|---------------------|
 Ab||-7-7---------------|-7-------------7-|--8----------------8-|
 Eb||-0-----------------|-----------------|---------------------|

[1] [+] [2] [+] [3] [+] [4] [+] [1] [+] [2] [+] [3] [+] [4] [+] [1] [+] [2] [+] [3] [+] [4] [+] 
 
 eb|--8-----8\7---10\7-||
 Bb|------8------------|| (x2)
 Gb|----7-------7------||
 Db|-------------------||
 Ab|-10----------------||
 Eb|-------------------||

[1] [+] [2] [+] [3] [+] [4] [+]  
-PRE-CHORUS: "Do you remember? Did it all go in vain..? "
(also drums & bass enter!)
 
 eb||-13-------12-13-------13-|-12---------12-10------||
 Bb||-15----15-15-15----15-15-|-11------11-11-10------|| (x2)
 Gb||----14----------14-------|------10---------------||
 Db||-------------------------|----12-----------------||
 Ab||-------------------------|-----------------------||
 Eb||-------------------------|-----------------------||

[1] [+] [2] [+] [3] [+] [4] [+] [1] [+] [2] [+] [3] [+] [4] [+] 
NOW ITS JUST STURMING CHORDS!
PLAYING ALONG MY VIDEO MIGHT BE HELPFUL!
NOTE!!: REMEMBER!
|| [Am]/ / / / ||
[1] [+] [2] [+] [3] [+] [4] [+]  
-VERSE:
|| [Am]/ / / / | [Em]/ / / / | [F]/ / / / | [G]/ / / / || (x2)
Dm Bb Dm Bb F________(F)
| / / / / | / / / / | / / / / | / / / / | / / / / | / / / / ||
-CHORUS:
|| [Dm]/ / / / | [Am]/ / / / | [F]/ / / / | [C]/ / / / |
Dm Am F F____(F)
| / / / / | / / / / | / / / / | / / / / ||
-VERSE:
|| [Cm]/ / / / | [Gm]/ / / / | [Ab]/ / / / | [Bb]/ / / / || (x2)
Fm Db Fm Db Ab_______(Ab)
| / / / / | / / / / | / / / / | / / / / | / / / / | / / / / ||
-CHORUSE:
|| [Fm]/ / / / | [Cm]/ / / / | [Ab]/ / / / | [Eb]/ / / / || (x2)
| [Fm]/ / / / | [Cm]/ / / / | [Ab]/ / / / | [Eb]/ / / / |
*its the same chords. just paly with more rhythm!
| [Fm]/ / / / | [Cm]/ / / / ||
*this is the part where it goes "Kills me, it thrills me"
-VERSE:
[Bb] [C] [Dm] [C]  
 
 ||*r / / / | / / / / | / / / / | / / / / |---------------*r means Rest

| [Bb]/ / / / | [C]/ / / / | [Fm]/ / / / | [Fm]/ / / / |
| [Bb]/ / / / | [C]/ / / / | [Dm]/ / / / | [Am]/ / / / | [Bb]/ / / / | [C]/ / / / ||
-INTERLUDE:
|| [Fm]/ / / / | [Cm]/ / / / | [Ab]/ / / / | [Eb]/ / / / |
| [Fm]/ / / / | [Cm]/ / / / | [Ab]/ / / / | [Ab]/ / / / ||
*this is the chords before the solo!
|| [A]/ / / / | [E]/ / / / | [F]/ / / / | [G]/ / ||
-SOLO (same chords as verse):
|| [Cm]/ / / / | [Gm]/ / / / | [Ab]/ / / / | [Bb]/ / / / || (x2)
-BRIFGE (here is the fun part!):
|| [Fm]/ / / / | [Cm]/ / / / | [Db]/ / / / | [Eb]/ / / / || (x4)
 
 --------VERSE:

|| [Fm]/ / ||| [Gm]/ / / / | [Dm]/ / / / | [Bb]/ / / / | [F]/ / / / || (x4)
-CHORUSE:
|| [Cm]/ / / / | [Gm]/ / / / | [Eb]/ / / / | [Bb]/ / / / |
| [Cm]/ / / / | [Gm]/ / / / | [Eb]/ / / / | [Eb]/ / / / ||
-OUTRO (guitar):
|| [Dm]/ / / / | [Am]/ / / / | [F]/ / / / | [C]/ / / / |
| [Dm]/ / / / | [Am]/ / / / | [F]/ / / / | [G]/ / / / || (x2)
-OUTRO (paino): (its the same chords as 'otro-guitar')
|| [Dm]/ / / / | [Am]/ / / / | [F]/ / / / | [C]/ / / / |
| [Dm]/ / / / | [Am]/ / / / | [F]/ / / / | [G]/ / / / || (x2)

Important: The song above is NOT stored on the Chordie server. The original song is hosted at www.guitartabs.cc. Chordie works as a search engine and provides on-the-fly formatting. Chordie does not index songs against artists'/composers' will. To remove this song please click here.

Text color:
Chord color:
Chord grids: 
Font size:    
Page size: 

A Ab Am Bb C Cm Db Dm E Eb Em F Fm G Gm
Rate #1 of 6 versions

Login - add to songbook

SHARE PAGE  




You need to log in to post comments