Guitar Tabs, Chords and Lyrics
Server problems seems to be fixed. Chordie has been experiencing problems with songs disappearing. These issues now seems to be fixed, but still verifying the fix. If you find anything strange, please email admin@chordie.com.


Ab Mujhe Raat Din  Sonu Nigam

Sonu nigam-Ab Mujhe Raat Din
By Sanjeev George and Thomas George
Hey zu [Gm]Hmm Hm[D]m Hm[F]m Hmm[Gm]
h[Gm]ey hey[D] hey he[F]y hey [Gm] hey
Verse 1
Ab m[Gm]ujhe raat di[D]n tumhara hi khay[Gm]al hain
Ab m[Gm]ujhe raat di[D]n tumhara hi khay[Gm]al hain
ky[Gm]a kahu pyaar[D] mein deewano jai[Gm]sa haal hain
de[Gm]ewano jaisa h[D]aal hain [F]tumhara hi kha[D]yal hain
Ho [Gm]ho aa ha [D]ha ha [F]la la la la l[Gm]a la
Ab mujhe raat din tumhara hi khayal hain
kya kahu pyaar mein deewano jaisa haal hain
Stanza 1
Tu[Gm]m ko dekhe [Am]bina ch[C]ain milta [Gm]nahi
d[Gm]il pe ab to [Am]koi zo[C]r chalta [Gm]nahi
ja[C]adu hain kaisa dil ki[Am] lagi mein
d[F]ub gaya hu is[D] bekhudi m[Gm]ein
Ho ho aa ha ha ha la la la la la la
Verse 2 same choeds as verse 1
Ab mujhe raat din tumhara hi khayal hain
kya kahu pyaar mein deewano jaisa haal hain
Stanza 2 same chords as stanza 1
Har pal dhunde nazar tum ko hi jaaneman
had se badhne laga mera deewanapan
dil mein basa lu apna bana lu
ya phir nazar mein tumko chupa lu
Ho ho aa ha ha ha la la la la la la
Verse 3 same as above verses
Ab mujhe raat din tumhara hi khayal hain
kya kahu pyaar mein deewano jaisa haal hain
deewano jaisa haal hain tumhara hi khayal hain
Ho ho aa ha ha ha la la la la la la
Ho ho aa ha ha ha la la la la la la
Played after verse 1
 
 e|----------------------------------------------------------------------------|
 B|----------------------------------------------------------------------------|
 G|--2-3-2---2--2-3-2---2-----------------2-3-2---2--2-3-2---2-----------------|
 D|--------5----------5----3---3s5-5v-----------5----------5------3s5-3-3v-----|
 A|--------------------------5----------------------------------5--------------|
 E|----------------------------------------------------------------------------|
 e|--------------------------------------------------------------------------|
 B|--------------------------------------------------------------------------|
 G|-------2---2h3p2-------------2---2h3p2---------------------2h3p2----------|
 D|---3-5---5-------5-3-----3-5---5-------5-3---2h3p2-2-2-2-3-------3?0h1-0--|
 A|--------------------------------------------------------------------------|
 E|--------------------------------------------------------------------------|
 e|-------------------------------------|
 B|-----3h4p3---------3-3-4-6-3---------|
 G|-----------5-3---5-------------------|
 D|-------------------------------------|
 A|-------------------------------------|
 E|-------------------------------------|
 e|-----------------------------------------|
 B|-----------------------------------------|
 G|-------------2-3-5-3-2?2h3p2-------------|
 D|---------3-5-----------------5-3---------|
 A|-----1s3---------------------------------|
 E|-----------------------------------------|

Played during the stanzas (Jaado hai kaisa???.&dil mein basaa lu???)
 
 e|----------------------------------------------------|
 B|-------------3-4-6-4-3-3h4p3-------3----------------|
 G|---------3-5-----------------5-3-5---5-3-5----------|
 D|-----3s5--------------------------------------------|
 A|----------------------------------------------------|
 E|----------------------------------------------------|
 e|-------------4-6-6s8-8-8-6h8p6----------------|
 B|---------4-6-------------------9-9------------|
 G|-----3s5--------------------------------------|
 D|----------------------------------------------|
 A|----------------------------------------------|
 E|----------------------------------------------|


Important: The song above is NOT stored on the Chordie server. The original song is hosted at www.guitartabs.cc. Chordie works as a search engine and provides on-the-fly formatting. Chordie does not index songs against artists'/composers' will. To remove this song please click here.

Text color:
Chord color:
Chord grids: 
Font size:    
Page size: 

Am C D F Gm
Rate #2 of 4 versions

Login - add to songbook

SHARE PAGE  




You need to log in to post comments