Guitar Tabs, Chords and Lyrics
Major upgrade!! After one year development the new version of Chordie is now online! Please give feedback.


Black Hole Sun  Soundgarden

Date: Sun, 14 Jan 1996 20:26:24 -0500
Subject: BLACK HOLE SUN BTAB BY SOUNDGARDEN
Hello all Soundgarden fans this is the first Soundgarden Bass tab
and it's for one of the most requested songs of 94 and 95 Black Hole Sun.
I'm gonna gonna give you the TAB for it but you probabley won't be able to
understand
the rythm from the tab so your gonna have to figure that out for yourself
okay yall.
Dropped D tuning
[4D] [2D]  
[3A] [1G]  
Come in at the lyrics
[G]  
[D]  
[A]  
 
 D-5--5/8----8\3--2--1--0--

[G]  
[D]  
[A]  
 
 D-5-5-3-3/6----5--5/8---8/3 

[G]  
[D]  
[A]  
 
 D-3-2-2--2-1-1-0---5-5-3-3/6-6

"Black Hole Sun"
[G]  
[D]  
[A] [s/s]  
 
 D-1--1-0-0-5-5-3-3--1-1-------0--1-0

______________________________
)1.
[G]  
[D-]  
[A-3--3-3-3/5]  
[D]  
_______________________________
)2.
[G]  
[D]  
 
 A-3--3-3-3--3-0-1-1-1-1----------------------------------1-1-
 D-------------------------------0-1--1-0--0---5--5-3--3---------0----1--0:

[G]  
[D]  
 
 A-3--3-3-3--0-1--1-1-0-5--5-5-5-0--3--3-3-3-0-1-1-1-1-1/5-5--5-5-5-5
 D-------------------------------------------------------------------------0

[G]  
[D]  
 
 A-3--3-3-3-1-1-1-1/5-------------------3--3-3--3-0-1-1-1-1/5-5-------5-5-5-5
 D---------------------------0-0-0-0-0-0-----------------------------------0-0

and under the solo play this
[G]  
 
 D---------------------------3------3

A-3-2-0-2h3 play 6 times
 
 D----------------5-4-3--3---3-------3-0

[G]  
 
 D-3/5-5------5-5/8-8\3--2----

[G]  
[D]  
 
 A-3--3-3-3-3-0-1-1-1-1/5------5-----5
 D--------------------------------0-0---0-0---0

[G]  
[D]  
 
 A-3-3-3-3-0-1-1-1-1/5-------5------5-
 D-----------------------------0-0---0-0----0

[G]  
 
 D-----------------------------------------------------------------------------
 ---------7
 A-3--3-3--3-0-1-1-1-1-0-5-5-5-5-5-5-5-0-3--3-3--3-0--1--1-1-1-0-5--5---5---5-0
 D-----------------------------------------------------------------------------
 -------------0---0

[G]  
 
 D------------------------------------7
 A-3--3-3--3-0--1--1-1--1-0-5--5---5---5-0
 D----------------------------------------0---0

[G]  
[D]A-3-2-0-2h3
 
 D---------------5-4---3-3-3--3-3-0-3/5-5

THat's it good luck
tabbed by Jon

Important: The song above is NOT stored on the Chordie server. The original song is hosted at www.guitartabs.cc. Chordie works as a search engine and provides on-the-fly formatting. Chordie does not index songs against artists'/composers' will. To remove this song please click here.

Text color:
Chord color:
Chord grids: 
Font size:    
Page size: 

A D G
Rate #1 of 23 versions

Login - add to songbook

SHARE PAGE  




You need to log in to post comments