Guitar Tabs, Chords and Lyrics
Server problems seems to be fixed. Chordie has been experiencing problems with songs disappearing. These issues now seems to be fixed, but still verifying the fix. If you find anything strange, please email admin@chordie.com.


Rela Ku Pujuk  Spider

aku rasa ni tab relaku pujuk yang hampir 90% accurate..
kalau korang main,tapi rasa lain macam,mgkn tune gitar korang lain dgn tune gitar aku..
korang cube la turunkan@naikkan tune gitar korang...
ataupun,korang cube tab lain yang sempurna utk tune gitar korang...
any comment,just sent an e-mail to mr.grunge666@yahoo.com.my
or,meet me at myspace...
 
 e|---------------------------------------------------------------|
 B|-------------2-------------------------------------------------|
 G|-----------2---2---2---------777-6-4-4/7-----------------------|
 D|--000--2-4-------4---2-2/4-------------------------------------|
 A|---------------------------------------------------------------|
 E|---------------------------------------------------------------|
 e|------------10-------------------------------------------------|
 B|-------7-10----10-7---7---8--5--7--3----8----------------------|
 G|--7-9---------------9-----9--6--7--4----9----------------------|
 D|---------------------------------------------------------------|
 A|---------------------------------------------------------------|
 E|---------------------------------------------------------------|

Di[Bm]kejar baya[A]ng-bayang re[D]sah
Bi[Em]la hatimu m[A]asih tak be[D]rubah
Enggan d[G]i puny[A]a dan [Bm]di penjara
Bel[A]aian cintaku [Bm]ini[F#]
Ak[Bm]u bukan lel[A]aki yang te[D]was
Bisa m[Em]enyembah wal[A]au ku di t[D]olak
Biar [G]di u[A]ji kanan [Bm]dan kiri
Kau [A]kan tetap ku mi[D]liki
 
 e|-----0--------0--------0-------2--0--------------------------------|
 B|----3-3-3----3-3-3----3-3-2----3--2--------------------------------|
 G|---2---2----2---2----2---2-----4--3--------------------------------|
 D|--0----------------------------4--4--------------------------------|
 A|-----------1--------2----------0--4--------------------------------|
 E|-------------------------------0--0--------------------------------|

(Korus)
Ti[Bm]ada lafas yan[A]g lebih agu[D]ng
Kali[A]mah cinta[D]mu yang k[A]u tunggu t[Bm]unggu[F#]
Bi[Bm]ar jasadku[A] yang menang[D]gung
Permai[A]nan dari[D]mu rela [A]ku pu[Bm]juk[F#]
Ja[Bm]nganlah kau sal[A]ahkan aku[D]
Terus [Em]memburu m[A]enawan cinta[D]mu
Daku p[G]ercay[A]a sediki[Bm]t masa
Ka[A]u kecundang akhirn[Bm]ya
Usah[Em]lah kau ber[A]sedih di hadap[D]anmu aku h[Bm]adir
Memada[Em]m resah dan cur[A]iga dari hat[D]imu oh...
Apak[Em]ah kali ini[A] bisa kau t[D]olak dan berl[Bm]ari
Setela[A]h aku menanamkan[F#] azimatku

Important: The song above is NOT stored on the Chordie server. The original song is hosted at www.guitartabs.cc. Chordie works as a search engine and provides on-the-fly formatting. Chordie does not index songs against artists'/composers' will. To remove this song please click here.

Text color:
Chord color:
Chord grids: 
Font size:    
Page size: 

A Bm D Em F# G
Rate #1 of 5 versions

Jango Player

Login - add to songbook

SHARE PAGE  




You need to log in to post comments