Guitar Tabs, Chords and Lyrics
Server problems seems to be fixed. Chordie has been experiencing problems with songs disappearing. These issues now seems to be fixed, but still verifying the fix. If you find anything strange, please email admin@chordie.com.


Margarita  Spin Doctors

Margarita (Spin Doctors)
from the album Nice talking to me (which is indeed awesome by the way)
(standard tuning)
Main riff / rhythm throughout whole song:
[G] [-] [Cadd9] [-] [Am] [-] [D]  
where Cadd9 is
[-3-]  
[-3-]-0-
[-2-]  
[-3-]  
[---]  
Passage in the main riff (after Cadd9):
 
 G|--0-0-2-2-2h4-2p0--|

Passage in 2nd verse:
 
 |--------------------------------------|
 |--------------------------------------|
 |---------------------0-0-2-2-2h4-2p0--|
 |-------------2/5----------------------|
 |------2/5--3--------------------------|
 |--/3----------------------------------|

Bridge:
[Cadd9] [-] [G] [-] [D/F#] [-] [D/F#]  
where D/F# is
[-2-]  
[-3-]  
[-3-]-0-
-x-
[-2-]  
Solo:
F C F C D G (back to verse)
 
 |------------------------------------------------------------------5---5-----|
 |------5-6--5----5---5------------------5-6--5----5---5---5---5--7---7---8~--|
 |--5-7---------7---7---5~--5~--5~---5-7---------7---7---7---7----------------|
 |----------------------------------------------------------------------------|
 |----------------------------------------------------------------------------|
 |----------------------------------------------------------------------------|

Complements or corrections please send to marcos.nagato@gmail.com
Enjoy!

Important: The song above is NOT stored on the Chordie server. The original song is hosted at www.guitartabs.cc. Chordie works as a search engine and provides on-the-fly formatting. Chordie does not index songs against artists'/composers' will. To remove this song please click here.

Text color:
Chord color:
Chord grids: 
Font size:    
Page size: 

Am Cadd9 D D/F# G
Rate #0 of 2 versions

Jango Player

Login - add to songbook

SHARE PAGE  



You need to log in to post comments