Guitar Tabs, Chords and Lyrics
Server problems seems to be fixed. Chordie has been experiencing problems with songs disappearing. These issues now seems to be fixed, but still verifying the fix. If you find anything strange, please email admin@chordie.com.


Waste  Staind

Staind - Waste
Album: Break The Cycle
bass tab
by : doky 2007
taquilleros_de_sudamerica_maroyu_el_grupo_tropical_del_momento@hotmail.com
5-stringed bass
[G] [D] [A] [E] [A#]  
VERSO
 
 G--|--------------------------|-----------------------|
 D--|--------------------------|-----------------------|
 A--|--------------------------|-----------------------|
 E--|-1111------1111-----------|-1111------------------|
 A#-|------2---------2-22-5----|------2----000----0----|

CORO
 
 G--|-------------------------|
 D--|-------------------------|
 A--|-------------------------|
 E--|-4-3-xx-43-x-------------|
 A#-|-------------5----555-55-|

MIDDLE
 
 G--|------|------|-----------|-------------|
 D--|------|------|-----------|-------------|
 A--|------|------|-----------|-----------4-|
 E--|------|------|-----------|-------------|
 A#-|-3----|-1----|-3----1----|-3----1------|
 G--|---------------------|
 D--|---------------------|
 A--|---------------------|
 E--|------4-44------2-22-|
 A#-|-3-33------1-11------|

Les mando congratulaciones especiales Alastorezaga y a Su Đata, que se llama Valeria ps.
preste son y los veo en todo lado juntos, tambien en Medicina pero creo que estan ahi
la cosa es que el otro dia le llamo al celu de Alastorezaga y me contesta su ˝ata y me
reconoce todavia, bien tara y me dice que no esta... utha.
doky2007

Important: The song above is NOT stored on the Chordie server. The original song is hosted at www.guitartabs.cc. Chordie works as a search engine and provides on-the-fly formatting. Chordie does not index songs against artists'/composers' will. To remove this song please click here.

Text color:
Chord color:
Chord grids: 
Font size:    
Page size: 

A A# D E G
Rate #1 of 1 versions

Jango Player

Login - add to songbook

SHARE PAGE  



You need to log in to post comments