Guitar Tabs, Chords and Lyrics
Server problems seems to be fixed. Chordie has been experiencing problems with songs disappearing. These issues now seems to be fixed, but still verifying the fix. If you find anything strange, please email admin@chordie.com.


What You Want  The Starting Line

The Starting Line
What You Want
Directions
2007 Virgin Records
Submitted by: paramore_fans@yahoo.com
Key: Eb
Tuning: Standard EADGBe
Chords used:
Eb - x68886
Bb - x13331
Cm - x35543
[G#] [-] [466544]  
[Fm] [-] [133111]  
[F] [-] [133211]  
Intro:
Guitar:
very fast very fast
 
 e|-1h3p1-----|-------------------------------6-------------|-----------------
 B|-------4---|-1-3-4-------4-------4-----4-----4p3h4p3---4-|-----4---------4-
 G|---------3-|-------3-1-3---3---3---3-----3-----------3---|-3-3---3-3-3-3---
 D|-----------|-----------------3-------3-------------------|----------------- (x2)
 A|-----------|---------------------------------------------|-----------------
 E|-----------|---------------------------------------------|-----------------

Bass: Very fast Very fast
 
 G|----|-----|---8---------8-|----------|---8---------8-
 D|----|-3/6-|-8---8-8-8-8---|----------|-8---8-8-8-8---
 A|----|-----|---------------|-6--------|---------------
 E|----|-----|---------------|-----1--3-|---------------

Verse 1:
[Eb] I want [G#]something more than all [Fm]my pos[G#]sessions
Something I wanna share with every[Bb]body else
[Eb] It will be [G#]brilliant both to el[Fm]derly and [G#]children
Bb Eb(hold)
And be different in a way that can be embraced
Chorus:
If this is [Eb]what you want
Then I'm gonna [G#]get it to you
Cause I wanna [Eb]show you things
That you ne[Fm]ver knew, (That you never knew)
If this is [Eb]what you want
I'll get [G#]closer to you
And then I'll [G#]make you sing
Cause that's what you[Fm] do, ooooh[G#]
(Repeat Intro once)
Verse 2:
[Eb] So was it [G#]worth it, the way I [Fm]had every [G#]word?
It seems like I bit off a little more than [Bb]I could chew
[Eb] I've got a [G#]big mouth, yeah but may[Fm]be that's [G#]true
Bb Eb(hold)
I could never know for sure until it gets to you
(Repeat Chorus)
Bridge: Cm-Bb (x4)
I wanna make it feel bet[G#]ter
Cm-Bb (x4)
About the fact that you've made
The bet you've placed on the
[F]lonely boys from the Keystone state
Cm-Bb (x4)
Was it worth it?
It's only gonna get [G#]better
Cm-Bb (x4)
I think we're gonna be safe
If we can keep holding [F]on
and on to [G#]hope for this long
(Repeat Chorus)

Important: The song above is NOT stored on the Chordie server. The original song is hosted at www.guitartabs.cc. Chordie works as a search engine and provides on-the-fly formatting. Chordie does not index songs against artists'/composers' will. To remove this song please click here.

Text color:
Chord color:
Chord grids: 
Font size:    
Page size: 

Bb Eb F Fm G#
Rate #1 of 4 versions

Jango Player

Login - add to songbook

SHARE PAGE  



You need to log in to post comments