Guitar Tabs, Chords and Lyrics
Major upgrade!! After one year development the new version of Chordie is now online! Please give feedback.


Gang of Thieves  State Radio

Year of the Crow
Gang of Thieves
Tabbed by Owen Sakovics
Tuning: E A D G B E **For live recordings tune to Eb**
www.tabsinonefellswoop.com
[Em] [Em] [Em] [G] [C] [C]  
 
 -0------0-------0-------3-------0-------0--|
 -0------0-------0-------3-------1-------1--|
 -0------0-------0-------0-------0-------0--| x1
 -2------2-------2-------0-------2-------2--|
 -2------2-------2-------2-------3-------3--|
 -0------0-------0-------3------------------|

[Em] [G] [C] [C]  
 
 -0------3-------0-------0--|
 -0------3-------1-------1--|
 -0------0-------0-------0--| x3
 -2------0-------2-------2--|
 -2------2-------3-------3--|
 -0------3------------------|

[Em] [D] [A] [B7] [Em] [D] [A] [A]  
 
 -0------2-------0-------2-------0-------2-------0-------0--|
 -0------3-------2-------0-------0-------3-------2-------2--|
 -0------2-------2-------2-------0-------2-------2-------2--| x1
 -2------0-------2-------1-------2-------0-------2-------2--|
 -2--------------0-------2-------2---------------0-------0--|
 -0------------------------------0--------------------------|

[Em] [D] [A] [B7] [Em] [D] [B7] [B7]  
 
 -0------2-------0-------2-------0-------2-------2-------2--|
 -0------3-------2-------0-------0-------3-------0-------0--|
 -0------2-------2-------2-------0-------2-------2-------2--| x1
 -2------0-------2-------1-------2-------0-------1-------1--|
 -2--------------0-------2-------2---------------2-------2--|
 -0------------------------------0--------------------------|

[Em] [G] [C] [C]  
 
 -0------3-------0-------0--|
 -0------3-------1-------1--|
 -0------0-------0-------0--| x4
 -2------0-------2-------2--|
 -2------2-------3-------3--|
 -0------3------------------|

[Em] [D] [A] [B7] [Em] [D] [A] [A]  
 
 -0------2-------0-------2-------0-------2-------0-------0--|
 -0------3-------2-------0-------0-------3-------2-------2--|
 -0------2-------2-------2-------0-------2-------2-------2--| x1
 -2------0-------2-------1-------2-------0-------2-------2--|
 -2--------------0-------2-------2---------------0-------0--|
 -0------------------------------0--------------------------|

[Em] [D] [A] [B7] [Em] [D] [B7] [B7] [B7] [B7]  
 
 -0------2-------0-------2-------0-------2-------2-------2-------2-------2--|
 -0------3-------2-------0-------0-------3-------0-------0-------0-------0--|
 -0------2-------2-------2-------0-------2-------2-------2-------2-------2--| x1
 -2------0-------2-------1-------2-------0-------1-------1-------2-------1--|
 -2--------------0-------2-------2---------------2-------2-------2-------2--|
 -0------------------------------0------------------------------------------|

( Tab from: http://www.guitartabs.cc/tabs/s/state_radio/gang_of_thieves_tab.html )
[Em] [D] [C] [G]  
 
 -0------2-------0-------3--|
 -0------3-------1-------3--|
 -0------2-------0-------0--| x3
 -2------0-------2-------0--|
 -2--------------3-------2--|
 -0----------------------3--|

[Em] [D] [C7] [C7] [C7] [C7] [Em]  
 
 -0------2-------0-------0-------0-------0-------0--|
 -0------3-------1-------1-------1-------1-------0--|
 -0------2-------3-------3-------3-------3-------0--| x1
 -2------0-------2-------2-------2-------2-------2--|
 -2--------------3-------3-------3-------3-------2--|
 -0----------------------------------------------0--|

**BASS**
[Em] [G] [C] [C]  
 
 -0------3-------0-------0--|
 -0------3-------1-------1--|
 -0------0-------0-------0--| x4
 -2------0-------2-------2--|
 -2------2-------3-------3--|
 -0------3------------------|

[Em] [D] [A] [B7] [Em] [D] [A] [A]  
 
 -0------2-------0-------2-------0-------2-------0-------0--|
 -0------3-------2-------0-------0-------3-------2-------2--|
 -0------2-------2-------2-------0-------2-------2-------2--| x1
 -2------0-------2-------1-------2-------0-------2-------2--|
 -2--------------0-------2-------2---------------0-------0--|
 -0------------------------------0--------------------------|

[Em] [D] [A] [B7] [Em] [D] [B7] [B7]  
 
 -0------2-------0-------2-------0-------2-------2-------2--|
 -0------3-------2-------0-------0-------3-------0-------0--|
 -0------2-------2-------2-------0-------2-------2-------2--| x1
 -2------0-------2-------1-------2-------0-------1-------1--|
 -2--------------0-------2-------2---------------2-------2--|
 -0------------------------------0--------------------------|

[Em] [D] [C] [G]  
 
 -0------2-------0-------3--|
 -0------3-------1-------3--|
 -0------2-------0-------0--| x3
 -2------0-------2-------0--|
 -2--------------3-------2--|
 -0----------------------3--|

[Em] [D] [C7] [C7]  
 
 -0------2-------0-------0--|
 -0------3-------1-------1--|
 -0------2-------3-------3--| x1
 -2------0-------2-------2--|
 -2--------------3-------3--|
 -0-------------------------|

[Em] [B7] [Em] [C9] [B9] [C9] [Em] [B7] [B7] [B7]  
 
 -0------2-------0-------3--2--3--0-------2-------2------2------|
 -0------0-------0-------3--2--3--0-------0-------0------0------|
 -0------2-------0-------3--2--3--0-------2-------2------2------| x1
 -2------1-------2-------2--1--2--2-------1-------1------1--9s--|
 -2------2-------2-------3--2--3--2-------2-------2------2------|
 -0--------------0----------------0-----------------------------|

[Em] [D] [C] [G]  
 
 -0------2-------0-------3--|
 -0------3-------1-------3--|
 -0------2-------0-------0--| x3
 -2------0-------2-------0--|
 -2--------------3-------2--|
 -0----------------------3--|

[Em] [D] [C7] [C7] [C7] [C7] [Em]  
 
 -0------2-------0-------0-------0-------0-------0--|
 -0------3-------1-------1-------1-------1-------0--|
 -0------2-------3-------3-------3-------3-------0--| x1
 -2------0-------2-------2-------2-------2-------2--|
 -2--------------3-------3-------3-------3-------2--|
 -0----------------------------------------------0--|


Important: The song above is NOT stored on the Chordie server. The original song is hosted at www.guitartabs.cc. Chordie works as a search engine and provides on-the-fly formatting. Chordie does not index songs against artists'/composers' will. To remove this song please click here.

Text color:
Chord color:
Chord grids: 
Font size:    
Page size: 

A B7 B9 C C7 C9 D Em G
Rate #2 of 4 versions

Login - add to songbook

SHARE PAGE  




You need to log in to post comments