Guitar Tabs, Chords and Lyrics
Update 25:10. 13:00. Site is back up running again. Songbooks are recovered. Woring on getting search back up..


Safety Dance  Status Quo

By Joe Thomas
Intro. D
 
 E |---------------------------------------|
 H |---7-h8-h10---10-10---8-p7-h8-h10---10-|
 G |---------------------------------------| X 4
 D |---------------------------------------|
 A |---------------------------------------|
 E |---------------------------------------|

Guitar Riff.
 
 E |------------------------------------------------------|
 H |---10-10---8-p7-h8-h10---10?10--p7-h8?8?8?7?8---------|
 G |------------------------------------------------------|
 D |------------------------------------------------------|
 A |------------------------------------------------------|
 E |------------------------------------------------------|
 E |------------------------------------------------------------------------|
 H |----8?8?8?7?8?8?8 -8?7 ?h8-h10?10?8?7-----------------------------------|
 G |---------------------------------------------------------------------9--|
 D |------------------------------------------------------------------------|
 A |------------------------------------------------------------------------|
 E |------------------------------------------------------------------------|

Riff. Safety dance, oh safety dance
 
 E |----------------------------------------|
 H |----------------------------------------|
 G |----------------------------------------|
 D |----------------------------------------|
 A |-5------------4-5-6-7-----------2-3-4-5-|
 E |----2-3-4-5-----------4-5-6-7-----------|

Safety Dance
[D]We can dance if we want to
We can leave yo[C]ur friends behind[G]
'Cause your friends don't dance
And if t[C]hey don't dance
Well they're no fr[D]iends of mine[A]
Say we can go where we want to
A place where they will never find
And we can act like we
Come from out of this world
Leave the real one far behind
|G|C|F|B| x 2
(we can dance??..)
We can go when we want to
The night is young and so am I
And we can dress real neat
From our hats to our feet
And surprise them with the victory cry
Say we can act if we want to
If we don't nobody will
And you can act real rude or totally removed
And I can act like an imbecile
[G] we can dance We can dance[C]
[F] Ev'rything's out of control[B]
[G]We can dance We can dance[C]
They're doing[F] it from pole to pole[B]
We can dance, we can dance
Ev'rybody look at your hands
We can dance, we can dance
Ev'rybody's taken the chance hh
[D] [A] Safety dan[E]ce, oh [B] safety dance[D]
[A] Yes safety dance [E] oh [B]
Intro
we can dance if we want to
We got all your life to find
As long as we abuse it
never gonna lose it
everything will work out fine
We can dance if we want to
We can leave your friends behind
'Cause your friends don't dance
And if they don't dance
Well they're no friends of mine
we can dance We can dance
Ev'rything's out of control
We can dance We can dance
They're doing it from pole to pole
We can dance, we can dance
Ev'rybody look at your hands
We can dance, we can dance
Ev'rybody's taken the chance hh
Safety dance, oh safety dance
Yes safety dance
Safety dance, oh safety dance
Yes safety dance oh

Important: The song above is NOT stored on the Chordie server. The original song is hosted at www.guitartabs.cc. Chordie works as a search engine and provides on-the-fly formatting. Chordie does not index songs against artists'/composers' will. To remove this song please click here.

Text color:
Chord color:
Chord grids: 
Font size:    
Page size: 

A B C D E F G
Rate #1 of 5 versions

Jango Player

Login - add to songbook

SHARE PAGE  




You need to log in to post comments