Guitar Tabs, Chords and Lyrics
Major upgrade!! After one year development the new version of Chordie is now online! Please give feedback.


Jibboom   Steve Vai

 
 ---P----p-p-------------------------|-----0--0------------------------|
 --5^0--5^3^0----p-p-----------------|-----0--0------------------------|
 ---------------4^2^0---p------------|---------------------------------|
 ----------------------4^2^0---p-p---|------------------2--------------|
 -----------------------------4^2^0--|---------------------------------|
 ------------------------------------|---0--------3--0-----------------|
 -0--------P----p-p-------------------------|-----0--0-----------------|
 -0-------5^0--5^3^0----p-p-----------------|-----0--0-----------------|
 ----------------------4^2^0---p------------|--------------------------|
 -----------------------------4^2^0---p-p---|------------------2-------|
 ------------------------------------4^2^0--|--------------------------|
 -------------------------------------------|---0--------3--0----------|
 ---------P----p-p--------------------------|-----0--0-----------------|
 --------5^0--5^3^0----p-p------------------|-----0--0-----------------|
 ----------------------4^2^0---p------------|--------------------------|
 --2--------------------------4^2^0---p-p---|------------------2-------|
 ------------------------------------4^2^0--|--------------------------|
 -------------------------------------------|---0--------3--0----------|
 -0-------P----p-p--------------------------|-----0--0-----------------|
 -0------5^0--5^3^0----p-p------------------|-----0--0-----------------|
 ----------------------4^2^0---p------------|--------------------------|
 -----------------------------4^2^0---p-p---|------------------2-------|
 ------------------------------------4^2^0--|--------------------------|
 -------------------------------------------|---0--------3--0----------|
 -0-------P----p-p--------------------------|-----5--5-------3/5--3----|
 -0------5^0--5^3^0----p-p----p-p-----------|-----5--5-------3/5--3----|
 ---------------------4^2^0--4^2^0---p-p----|-----------2--------------|
 -----------------------------------4^2^0---|--2-----------------------|
 -------------------------------------------|--0-----------------------|
 -------------------------------------------|--------------------------|
 ---------P----p-p--------------------------|-----5--5-------3/5--3----|
 --------5^0--5^3^0----p-p------p-p---------|-----5--5-------3/5--3----|
 ---------------------4^2^0----4^2^0---p-p--|-----------2--------------|
 -------------------------------------4^2^0-|--2-----------------------|
 -------------------------------------------|--0-----------------------|
 -------------------------------------------|--------------------------|
 -3/5--3---------p-p-------------------------|-----0--0-----------------|
 -3/5--3--------5^3^0----p-p-----------------|-----0--0-----------------|
 -----------------------4^2^0---p-p----------|--------------------------|
 ------------------------------4^2^0---p-p---|---------------------2----|
 -------------------------------------4^2^0--|--2-----------------------|
 --------------------------------------------|--0----------3---0--------|

 


 


 full~~~


 

 
 ----------------p-p-------------------------|-----0--0------------7)---|
 ---------------5^3^0----p-p-----------------|-----0--0-----------10----|
 -----------------------4^2^0---p-p----------|--------------------------|
 ------------------------------4^2^0---p-p---|--------------------------|
 --7\---------------------------------4^2^0--|--2-----------------------|
 --------------------------------------------|--0----------3---0--------|

 


 


 ~~~~~


 

 
 ----------------p-p-------------------------|-------------------5/7--5-|
 ------------0--5^3^0----p-p-----------------|--------0----------5/7--5-|
 -----------------------4^2^0---p-p----------|--4-----4----4------------|
 ------------------------------4^2^0---p-p---|--4-------------4---------|
 -------------------------------------4^2^0--|--2-----------------------|
 --------------------------------------------|--------------------------|
 ----------------p-p-------------------------|------5--5--------3/5--3--|
 ------------5--5^3^0----p-p-----p-p---------|------5--5--------3/5--3--|
 -----------------------4^2^0---4^2^0---p-p--|-------------2------------|
 --------------------------------------4^2^0-|--2-----------------------|
 --------------------------------------------|--0-----------------------|
 --------------------------------------------|--------------------------|

 


 


 ( Tab from: http://www.guitartabs.cc/tabs/s/steve_vai/jibboom_tab.html )


 

 
 --3/5-3---------p-p-------------------------|------0--0----------------|
 --3/5-3--------5^3^0----p-p-----------------|------0--0----------------|
 -----------------------4^2^0---p-p----------|--------------------------|
 ------------------------------4^2^0---p-p---|--------------------2-----|
 -------------------------------------4^2^0--|--2-----------------------|
 --------------------------------------------|--0-----------3--0--------|

 


 


 (f#) p


 

 
 ----------------p-p-------------------------|---5^0-0----p-p-----------|
 ------------0--5^3^0----p-p-----------------|----------5^3^0-0----p----|
 ---~~~~----------------4^2^0---p-p----------|-------------------4^2^0--|
 --4(p.H)----------------------4^2^0---p-p---|--------------------------|
 -------------------------------------4^2^0--|-2------------------------|
 --------------------------------------------|-0------------------------|

 


 


 Melodic embelishment of First Cycle:


 


 Full


 Full Full


 

 
 ------------12-----|---)-----------------------|--0-----------12------------|
 --------)------12--|--15--p-p------------------|--0---------)---------14----|
 -----/-14----------|-----4^2^0---p-p-----------|-----------14----12---------|
 -2-----------------|------------4^2^0--p-p-----|----------------------------|
 -------------------|------------------4^2^0--2-|----------------------------|
 -------------------|-------------------------0-|----------------------------|

 


 


 Half


 [)]  

 
 ---------------------------|--0----Full-12-----14---------------------------|
 --~~-----p-p---------------|--0------)-----12------p-p----------------------|
 -12-----4^2^0--p-p---------|-------/14------------4^2^0--p-p----------------|
 ------------4^2^0--p-p-----|----------------------------4^2^0--p-p----------|
 ------------------4^2^0--2-|----------------------------------4^2^0---2-----|
 -------------------------0-|------------------------------------------0-----|

 


 


 Full


 

 
 --0-------------------|-~~-----------------------------|-0----)---14--------|
 --0-------12-0-10-----|-8--------p--p------------------|-0---12------12-----|
 -------14---------9---|---------4^2^0--p-p-------------|--------------------|
 ----------------------|---------------4^2^0--p-p-------|--------------------|
 ----------------------|---------------------4^2^0---2--|--------------------|
 ----------------------|-----------------------------0--|--------------------|

 


 


 Quart.


 Full )


 

 
 --14)----p-p-----------------|---5--------12---13---14)----p-p-----------------------|
 --12----5^3^0--p-p-----------|---5----/14---12---13-13----5^3^0---p-p----------------|
 --------------4^2^0--p-p-----|-----------------------------------4^2^0--p-p----------|
 --------------------4^2^0--2-|-----------------------------------------4^2^0--2------|
 ---------------------------0-|------------------------------------------------0------|
 -----------------------------|-------------------------------------------------------|

 


 


 Full


 [)]  

 
 --12-15----------------------------------|--0---/14--12------------------------------|
 --12-15--------~~~--p-p------------------|--0------------p-p-------------------------|
 ----------14--12---4^2^0--p-p------------|--------------4^2^0--p-p-------------------|
 -------------------------4^2^0--p-p------|--------------------4^2^0--p-p-------------|
 -------------------------------4^2^0---2-|--------------------------4^2^0--2---------|
 ---------------------------------------0-|---------------------------------0---------|

 


 


 Full Full


 [)] [)] [)]  

 
 --0---17--17(19)--17-15-17----p-p------------------|------------19----18-------------|
 --0------------------------0-5^3^0--p-p------------|---0----/16----15----14----------|
 -----------------------------------4^2^0-----------|---------------------------------|
 -----------------------------------------4^2^0---4-|---------------------------------|
 -------------------------------------------------2-|---------------------------------|
 ---------------------------------------------------|---------------------------------|

 


 


 Full BD Full


 Full ) ) )


 

 
 --(17)------p----p-p------------------|---5----22--22-22--20-22----------------------|
 ---14)-----5^0--5^3^0--p-p------------|---5------------------------------------------|
 ---16-----------------4^2^0--p-p------|-------------------------4^2^0----------------|
 ----------------------------4^2^0---2-|------------------------------4^2^0-----------|
 ------------------------------------0-|-----------------------------------4^2^0--2---|
 --------------------------------------|------------------------------------------0---|

 


 


 Full


 [)]  

 
 --0-----24----24---:------------------|--------------
 --0----------------:---"This bit was--|------------
 -------------------:---low in mix to--|------------------
 -------------------:---transcibe-any--|----------------
 -------------------:---ideas will be--|----------------
 -------------------:-----credited"----|-----------

 


 


 *SOLO* YEAH YEAH YEAH


 


 (section 1)


 T.A B.U * Full


 

 
 -----------/----|----------0----0-|-0-0-----0----0--|----h0-----h0---0--0--0-----h0--|
 ----------/-----|------)----------|-----------------|-(3)^5--(3)^5---3--2--3--(2)^3--|
 --(-24)-2/------|------2-----2----|------2----2-----|--------------------------------|
 ----------------|-----------------|-----------------|--------------------------------|
 ----------------|-----------------|-----------------|--------------------------------|
 ----------------|-----------------|-----------------|--------------------------------|

 


 


 P.H P.H P.H


 

 
 --0-----Full----------Full-----|----Full----------Full------------------h0--0---0-|
 --2-------)----p-------)----p--|-----)-----p--------)----p--------3-5--3^5--3--/8-|
 -----4---2(4)-2^0-----2(4)-2^0-|----2(4)--2^0------2(4)-2^0--2/4------------------|
 -------------------2-----------|-2-------------2----------------------------------|
 -------------------------------|--------------------------------------------------|
 -------------------------------|--------------------------------------------------|
 --0----0--0--0-0----0-0---0--0
 --5--/10-10--8-8--/12-12-10-10
 --------------


Important: The song above is NOT stored on the Chordie server. The original song is hosted at www.guitartabs.cc. Chordie works as a search engine and provides on-the-fly formatting. Chordie does not index songs against artists'/composers' will. To remove this song please click here.

This song is displayed as text-only. Transposing and tuning is only available for chordpro-songs.
Rate #2 of 5 versions

Jango Player

Login - add to songbook

SHARE PAGE  



You need to log in to post comments