Guitar Tabs, Chords and Lyrics
Server problems seems to be fixed. Chordie has been experiencing problems with songs disappearing. These issues now seems to be fixed, but still verifying the fix. If you find anything strange, please email admin@chordie.com.


K’m-Pee-Du-Wee   Steve Vai

 
 -------------------------------------------------------------------------------

 


 K'm-Pee-Du-Wee - Steve Vai


 

 
 -------------------------------------------------------------------------------

 


 Tabbed by: BlisteringDDj


 Email: ddj1991@gmail.com


 


 Tuning: EBGDAE


 


 E S S S E S E E S S E


 

 
 E||------------------------------------------|
 B||------------------------------------------|
 G||------------------11g13~-L----------------|
 D||--------13~-L-11--------------------------|
 A||-----11------------------------11-----11--|
 E||--0----------------------------11h-12-11--|

 


 


 E S S S E S S S S S S S E


 

 
 --------------------------------------------------|
 --------------------------------------------------|
 ------------------11g13p-L-11-11S-13-13S-15S-11~--|
 --------13~-L-11----------------------------------|
 -----11-------------------------------------------|
 --0-----------------------------------------------|

 


 


 E S S S E S S S S S S S E


 

 
 --------------------------0----------------|
 -------------------------------------------|
 ------------------11g13-L------------------|
 --------13~-L-11--11g13-L-------11-----11--|
 -----11-----------------------x-11h-13-11--|
 --0---------------------------x------------|

 


 


 E S S S E S S S S S S S E


 

 
 ----------------------------------------------|
 ------------------14p-L-11--------------------|
 ---------------------------13p-11-13S-15S-8~--|
 --------13~-L-11------------------------------|
 -----11---------------------------------------|
 --0-------------------------------------------|

 


 


 E S S S E S S S S S S S S S


 

 
 --------------------------0------------------|
 ---------------------------------------------|
 ------------------11g13-L--------------------|
 --------13~-L-11--11g13-L--------------------|
 -----11-----------------------x-11-----11-11-|
 --0---------------------------x-11h-12-11-11-|

 


 


 E S S S S S S S S S S S S E


 

 
 -------------------------------------------------|
 -------------------------------------------------|
 -------------------11g13S-L-11-11S-13-13b-13-11--|
 --------13~-L-11-x-11g13S-L-11-11S-13-13b-13-11--|
 -----11------------------------------------------|
 --0----------------------------------------------|

 


 


 E S S S S S S S S E S S S S


 

 
 ----------------------------16-----------------|
 --------------------12g14-L--------------------|
 --------------------11g13-L--------------------|
 --------13-13-11-11---------------11-----11-11-|
 -----11---------------------------11h-13-11-11-|
 --0--------------------------------------------|

 


 


 E S S S S S S S S S S S S E


 

 
 ------------------------------------------------------|
 -----14S-16--------14S-19S-L-14-14S-12--------14S-12--|
 ------------15S-13-----18S-L-13--------11g13S--L--11--|
 ------------------------------------------------------|
 ------------------------------------------------------|
 --0---------------------------------------------------|

 


 


 E S S S E S E E S S E


 

 
 ------------------------------------------|
 ------------------12g14~-L----------------|
 --------13~-L-11--------------------------|
 -----11------------------------11-----11--|
 --0----------------------------11h-12-11--|
 ------------------------------------------|

 


 


 E S S S E S S S S S S S E


 

 
 -------------------------------------------------|
 ------------------12g14p-L-12-12h-14-14S-16S-12--|
 --------13~-L-11---------------------------------|
 -----11------------------------------------------|
 --0----------------------------------------------|
 -------------------------------------------------|

 


 


 E S S S S S S S S S S S S E


 

 
 ----------------------------16----------------|
 --------------------12g14-L-------------------|
 --------13-13-11-11-11g13-L------x-11-----11--|
 -----11--------------------------x-11h-13-11--|
 --0-------------------------------------------|
 ----------------------------------------------|

 


 


 PM PM


 S T T S S T T S S S S S S S S S E


 

 
 ----14S-16S-12-----------------------------------------|
 ---------------14-14S-16-12S-9-------------------------|
 -------------------------------9-----------------------|
 ---------------------------------9g11S-6-----------6~--|
 -----------------------------------------7-------4-----|
 --------------------------------------------0--2-------|

 


 


 E S S S E S S S S S S S S S


 

 
 ------------------------------------16S-11-11-11-|
 ------------------------------------16S-11-11-11-|
 ------------------11g13S-L-11S-13-x--------------|
 --------13~-L-11--11g13S-L-11S-13----------------|
 -----11------------------------------------------|
 --0----------------------------------------------|

 


 


 E S S S E S S S S S S S E


 

 
 ------------------------------------------------|
 -------------------------12---------------------|
 ------------------13S-15----15S-13h-15-13S-11~--|
 --------13~-L-11--------------------------------|
 -----11-----------------------------------------|
 --0---------------------------------------------|

 


 


 S S S S S E S Q S S S S


 

 
 ---------------------------------------------|
 ---------------------12S-14~----14S-12-12-12-|
 -----------11----14-------------13S-11-11-11-|
 --------14-----------------------------------|
 -----12--L-----------------------------------|
 --10-----L----10-----------------------------|

 


 


 PM PM PM PM NH NH NH NH NH NH


 S S S S S S S S S S S S S S S S


 

 
 ------------------------------------12-----7-5-----|
 ---------------------10S-12----12------7---------5-|
 -----------9----12-x--9S-11------------------------------|
 --------12---------x--------9----------------------------|
 -----10--------------------------------------------------|
 --8----------8-------------------------------------------|

 


 


 E S S S E S S S S S S S E


 

 
 --------------------------16----------------|
 --------------------------16----------------|
 ------------------11g13-L-------------------|
 --------13~-L-11--11g13-L-------------------|
 -----11------------------------x-11-----11--|
 --0----------------------------x-11h-14-11--|
 |-----5-----| 

 


 S T T T T T T T T T T T T S S T T T T T S


 

 
 ------------------------18p-13----------------------------------------
 ---------------------16--------16----------16S-11p-9------------------
 --------------15/-15--------------15----15-----------11p-9------------
 -------13/-13------------------------13--------------------11p-9------
 ----11-----------------------------------------------------------11-9g
 ----------------------------------------------------------------------

 


 


 Q T S. E Q E T T S


 

 
 -------18p-16~-L----------18p-16S-14S-|
 --------------------------------------|
 --------------------------------------|
 --------------------------------------|
 --------------------------------------|
 --------------------------------------|

 


 


 S S S S E T T T T Q E. X X T


 

 
 --16h-18---18----18S-19S-18S-19S-16~--------21p-19p-18-|
 -------------------------------------------------------|
 -------------------------------------------------------|
 -------------------------------------------------------|
 -------------------------------------------------------|
 -------------------------------------------------------|

 


 


 S S S S S S S S S S S S S E S


 

 
 --19S-23---18S-23---18S-23---18p-16S-21---16S--18-|
 --------------------------------------------------|
 --------------------------------------------------|
 --------------------------------------------------|
 --------------------------------------------------|
 --------------------------------------------------|

 


 


 S S S S S S S S S S S S E E


 

 
 --14S-16---23S-12-11------------------------------|
 ---------------------12---------------------------|
 ------------------------11S-6---------------------|
 ------------------------------8p-6----------------|
 -----------------------------------(7)-9g11S--9~--|
 --------------------------------------------------|

 


 


 E. T T T T T T S S E. T T T T T T S S


 

 
 ------------------9-------------------11---|
 ----------------7-------------------9------|
 ------------6-6-----------------8-8--------|
 --------4-4-----------------6-6------------|
 ------2-------------------4----------------|
 -------------------------------------------|

 


 


 T T T T T T S S T T T T T T S T T T T T T S S T T


 

 
 -----------------14--------------------16-------------------18--------
 --------------12--------------------14-------------------16-----------
 --------11-11-----------------13-13----------------15-15--------------
 ----9-9-----------------11-11----------------13-13------------------16
 --7-------------------9-------------------11---------------------14---
 ----------------------------------------------------------------------
 |-----9-----| 9 9 9 

 


 T T T T T T T T T T T T S S T T T T T T T T


 

 
 --------------------23p-18--------------------------------------------
 -----------------21--------21----------21S-11p-9----------------------
 -----------20-20--------------20----20-----------11p-9----------------
 -----18-18-----------------------18--------------------11p-9-------11-
 --16---------------------------------------------------------11p-9----
 ----------------------------------------------------------------------

 


 


 S. S T T T T T T T T T T T T T T T T T S S T T T T T T


 

 
 ----------------------------------11p-6-----------------------------|
 --11S-7p-4----------------------9-------9-------9S-L-4p-2-----------|
 -----------6p-4---------------8-----------8---8-----------4p-2------|
 ----------------6p-4------6-6---------------6------------------4p-2-|
 ---------------------6p-4-------------------------------------------|
 --------------------------------------------------------------------|

 


 


 \1 \0/


 E. S E. T T T T S S S E. S


 

 
 ------16br-L---14p-12-14-12---11S-7S--9~---7-|
 ---------------------------------------------|
 ---------------------------------------------|
 ----------------------------x----------------|
 ---------------------------------------------|
 --0------------------------------------------|

 


 


 S S S S E E S [3]E [3]E [3]S. [3]T E.


 

 
 --5p-4-5----------------------------------|
 ------------------------------------------|
 ---------13g11S-6b-------9S--4S--6--L-L---|
 ------------------------------------------|
 ------------------------------------------|
 ------------------------------------------|

 


 


 \0/


 

 
 |---3---| |---3---| 

 


 E E E E. S T T S E S T T T S S


 

 
 ---------12---L----------------------------------12h-14-|
 -----16---L--16---14br-L-12-----------12h-14h-16--------|
 ----------------------------16-16~----------------------|
 --------------------------------------------------------|
 --------------------------------------------------------|
 --------------------------------------------------------|

 


 


 \2/ \1 \1/


 

 
 |-----3----| |--6--| |--6--| |--3--| 

 


 E E S S S S S S S S S S S E S T. X S S


 

 
 ---------17--L--16-16--L--14-14--L--12-12----L--12---------------|
 -----21-----21S-19----19S-17----17S-16----16-L--16p-L---14p-12---|
 -----------------------------------------------------------------|
 -----------------------------------------------------------------|
 -----------------------------------------------------------------|
 -----------------------------------------------------------------|

 


 


 S S S S S S S S S S S S S S S S


 

 
 ----23--------19S-16--------14S-11----11S-14S-11S-9----|
 -------------------------------------------------------|
 -------------------------------------------------------|
 -------------------------------------------------------|
 -------------------------------------------------------|
 -------23S-21--------16S-14--------11---------------9S-|

 


 


 \1


 S S S S S S S S S S S S Q


 

 
 -----11S-9------7S-4---4S-2-----------|
 --------------------------------------|
 --------------------------------------|
 --------------------------------------|
 --------------------------------------|
 --11-------9S-7------4------2-2--L----|

 


 


 \0/


 

 
 |--| |--| |--3--| 

 


 E. S T T S S S S S E Q E


 

 
 ---------------------10-12--L-14br--12~-------|
 ------------------10--------------------------|
 ---------------11-----------------------------|
 ----------14-L--------------------------------|
 -------12-------------------------------------|
 --10------------------------------------------|

 


 


 T T T T T T T T T T T T T T T T T T T T T T


 

 
 ----------------------------------------------------------------------
 -----15-----------15-----------15-------------------------------------
 --16----16-14S-16----16-14S-16----16-15-14-------14-------------------
 -------------------------------------------17-17----17-16-14h-16-17-16
 ----------------------------------------------------------------------
 ----------------------------------------------------------------------

 


 


 ( Tab from: http://www.guitartabs.cc/tabs/s/steve_vai/km_pee_du_wee_tab.html )


 \0/


 

 
 |-----5-----| 

 


 Q S S S S S E E E E


 

 
 ------------------------------------21--|
 --------------------19S-21--23--24------|
 -----------------21---------------------|
 --18h----L-19-21------------------------|
 ----------------------------------------|
 ----------------------------------------|

 


 


 E. S S S E H


 

 
 --23---24-L-----24b~--L--------|
 -------------------------------|
 ------------(x)----------------|
 -------------------------------|
 -------------------------------|
 -------------------------------|

 


 


 E. S S E. E S S Q


 

 
 -------------------------------------------------0--------|
 ----------------------------------------------2----3-L----|
 --------------------------------------0-L-----------------|
 ------------------------------------------4---------------|
 ----------------------------------------------------------|
 --3-------------------------------------------------------|

 


 


 E. S S E. S E S E E E S S S E S S S S S S S S S


 

 
 --------------2-------------|--------------------------------------|
 ----------------3-----------|--------------------------------------|
 ------0-L----------2-L------|-----x-7br-L-----------0h-2-0h-2p-0---|
 ----------4-----------------|-------------8\------3--------------3-|
 --3---------------------3S--|--6-----------------------------------|
 ----------------------------|-----------------1-L------------------|

 


 


 NH NH NH NH NH


 E. S S E. E E Q


 

 
 -----------------------5---------|
 ------------------5--------------|
 ------5-L-----------------3----|
 ------------4--------------------|
 -----------------------------------|
 --3--------------------------------|

 


 


 E. S S S E E. S E S S


 

 
 ---------------------------------------------------|
 -------------19g14S-L-12S-14~--L--------19g14S-12S-|
 ---------------------------------------------------|
 ---------------------------------------------------|
 ---------------------------------------------------|
 --0------------------------------------------------|

 


 


 PH


 S E T T E T T S S S S S E S S


 

 
 ----------------------------------------------|
 --14------------------------------------------|
 --------12S-11S-9br--L-7----------------------|
 -------------------------9-8S-5S-4------------|
 -----------------------------------5-4--2---|
 ----------------------------------------------|

 


 


 Bar Flutter


 W


 Q S S S S Q E S S


 

 
 ---------------------------------------------|
 -------12S-14-14S-11~---------L-------12S-14-|
 ---------------------------------------------|
 --------9S-11-11S--8~---------L--------9S-11-|
 ---------------------------------------------|
 ---------------------------------------------|

 


 


 Bar Flutter Bar Flutter


 W W


 S S S S S S S S E S S E S S


 

 
 -------------------------------------------------------------|
 --14S-11~---------L-12-12S-8-8-8S-11--8S-7~----------L--5S-7-|
 -------------------------------------------------------------|
 --11S--8~---------L--9--9S-5-5-5S--8--5S-4~----------L--2S-4-|
 -------------------------------------------------------------|
 -------------------------------------------------------------|

 


 


 |--3--|


 Q S S S S S S E. Q


 

 
 ------------------11-14p-11~--------|
 ---------------12-------------------|
 ------------11----------------------|
 ---------13-------------------------|
 ------------------------------------|
 ------------------------------------|

 


 


 S T T T T T T T T E. E. X X X X S E S


 

 
 -------------14-17---17p-14~-L----------------17-20-17------|
 ----------15-------------------------------18-----------20S-|
 -------14-------------------------------17------------------|
 ----16-------------------------------19---------------------|
 ------------------------------------------------------------|
 ------------------------------------------------------------|

 


 


 S S E S S E E S S S T T E


 

 
 ----------------------------------------------|
 --L-12S-16S--14S-12S-10-------10br-L-7--------|
 ----------------------------x----------10-8~--|
 ----------------------------x-----------------|
 ----------------------------------------------|
 ----------------------------------------------|

 


 


 PM PM PM PM PM


 S E S S T T S S S S S S S S S S


 

 
 ------------------------------------------------------|
 --------10br-L-7--------------------------------------|
 --10-------------10p-8--------------------------------|
 -----------------------10S-5S-4-----------------------|
 ----------------------------------(5)-(3)-(2)---------|
 ----------------------------------------------(5)-(2)-|

 


 


 \1/ \1/


 E. S S S E S S S S S S S S


 

 
 --------------------------------------7-|
 ----------------------------5h-7S-8-----|
 --------------------4h-6h-7-------------|
 --------2h-4S-5---L---------------------|
 ------2---------------------------------|
 --0-------------------------------------|

 


 


 \1/


 S E. S S S S S E. Q


 

 
 --9S-11-------------------------------|
 ----------12--------------------------|
 -------------11-----------------------|
 ----------------13p-11----------------|
 -----------------------13p-11~---L----|
 --------------------------------------|

 


 


 E S S S E S E E S S E


 

 
 --------------------------------------------|
 --------------------------------------------|
 ------------------11g13~-L------------------|
 --------13~-L-11----------------------(11)--|
 -----11------------------------11------11---|
 --0----------------------------11h-12--11---|

 


 


 E S S S E S S S S S S S E


 

 
 --------------------------------------------------|
 --------------------------------------------------|
 ------------------11g13~-L-11-11S-13-13S-15S-11~--|
 --------13~-L-11----------------------------------|
 -----11-------------------------------------------|
 --0-----------------------------------------------|

 


 


 E S S S S S S S S S S S S S S


 

 
 ----------------------------16------------------|
 --------------------12g14-L---------------------|
 --------------------11g13-L------x-11-----11-11-|
 --------13-13-11-11--------------x-11h-13-11-11-|
 -----11-----------------------------------------|
 --0---------------------------------------------|

 


 


 E S S S S S S S S S S S S E


 

 
 --------------------12g14S-L-11-9---9S-11S-4--|
 --------------------12g14S-L-11-9-7-9S-11S-4--|
 ----------------------------------------------|
 --------13-L-11-------------------------------|
 -----11---------(0)---------------------------|
 --0-------------------------------------------|

 


 


 E S S S E S S S S S S S S S


 

 
 ---------------------------16--------------------|
 ------------------12g14~-L-------14--------------|
 --------13~-L-11--------------13-------13\-------|
 -----11-----------------------------11-------11S-|
 --0----------------------------------------9-----|
 -------------------------------------------------|

 


 


 E S S S E S S S S S S S E


 

 
 ------------------------------------14S-16S-12--|
 -----------------12g14p-L-12-12h-14-14S-16S-12--|
 -------13~-L-11---------------------------------|
 --6---------------------------------------------|
 -----0------------------------------------------|
 ------------------------------------------------|

 


 


 E S S S S S S S S S S S S S S


 

 
 -----------------------------21----------------|
 --------------------------19-------------------|
 --------13~-L-11-11S-18-L----------------------|
 -----11---------------------------11-----11-11-|
 --0-------------------------------11h-12-11-11-|
 -----------------------------------------------|

 


 


 PM PM


 S T T S S T T S S S S S S S S S S S


 

 
 ----14S-16S-12-----------------------------------------|
 ---------------14-14S-16-12S-9-------------------------|
 -------------------------------9-----------------------|
 ---------------------------------9g11S-6-----------6-6-|
 -----------------------------------------7-------4-----|
 --------------------------------------------0--2-------|

 


 


 PM SH


 E S S S S S S S S S S S. T S S


 

 
 -----------------------------------------------------|
 -----------------------------------------------------|
 -------------------11g13S-L-11S-13-------------------|
 --------13~-L-11-x-11g13S-L-11S-13-------------------|
 -----11----------------------------------------------|
 --0--------------------------------(0)-4br-2-4~-4~-|

 


 


 E T T T T T T T T T T T T T T T T T T S S T


 

 
 ------------------------------------------18p-13----------------------
 -----------------------14----14--------14--------16----------16S-11p-9
 -----------15-11----15----13----11S-13--------------15----15----------
 --------13-------13------------------------------------13-------------
 -----11---------------------------------------------------------------
 --0-------------------------------------------------------------------

 


 


 E. S S E S E S S S S E


 

 
 -------------------------------------------|
 ------------10--12g14~-L--14----17-14-14\--|
 -------11--------------------14-14-14-14\--|
 ----------0--------------------------------|
 --9~---------------------------------------|
 -------------------------------------------|

 


 


 PM PM PM PM NH NH NH NH NH NH


 S S S S S S S S S S S S S S S S


 

 
 ------------------------------------12-----7-5-----|
 ---------------------10S-12----12------7---------5-|
 -----------9----12-x--9S-11------------------------------|
 --------12---------x--------9----------------------------|
 -----10--------------------------------------------------|
 --8----------8-------------------------------------------|

 


 


 \1/ \1/


 E S S S S S S E. S E. S


 

 
 ----------------------------------------|
 ---------------------21--L---16-16---14-|
 ---------------------20--L---15-15---13-|
 --------13~-L-11S-18-18--L---13-13---11-|
 -----11---------------------------------|
 --0-------------------------------------|

 


 


 E S S S E S S E S S E S


 

 
 -------------------------------------------------|
 ------------------------------12g14~-L-12--(17)h-|
 ------------------13~--L-11~---------------------|
 --------13~-L-11---------------------------------|
 -----11------------------------------------------|
 --0----------------------------------------------|
 |-----6----| |---6---| |---6---| |---6---| |---6---| |---

 


 T T T T T T T T T T T T T T T T


 

 
 ----------------------------------------------------------------------
 --19p----17h-19p-17h-19p-17h-19p-17h-19p-17h-19p-17h-19p-17S-16S-17h-1
 ----------------------------------------------------------------------
 ----------------------------------------------------------------------
 ----------------------------------------------------------------------
 ----------------------------------------------------------------------
 |---6---| |---6---| |---6---| |---6--| |--6-| |--6-

 


 T S. T T T T T T T T T T T T T T T T T


 

 
 ----------------------------------------------------------------------
 ----------------------------------------------------------------------
 --13S-11~-13p-11h-13p-11h-13p-11h-13p-11h-13p-11S-9h-11p-9-9-11p-9p-8-
 ----------------------------------------------------------------------
 ----------------------------------------------------------------------
 ----------------------------------------------------------------------
 |--6-| |--6-| |--6-| |-6-| |---3--| |---6--| |---6--| |-

 


 T T T T T T T T T T T T S T T T T T T T T T T


 

 
 -----------------------4h-6-7-9S-12p-11-------------------------------
 ---------------4h-5h-7------------------12p-11------------------------
 -------3h-4h-6---------------------------------13p-11-----------------
 --4h-6------------------------------------------------13p-11----------
 -------------------------------------------------------------13p-11-L-
 ----------------------------------------------------------------------

 


 


 S E S S E. H W


 

 
 ----------------------------|-------------------||
 ----------------------------|-------------------||
 ----------------------------|-------------------||
 ----------------------------|-------------------||
 --11----11S-6-6~------------|-------------------||
 -------------------0--------|--L----------------||

 


 


 


 Duration Legend


 

 
 ---------------

 


 W - whole


 H - half


 Q - quarter


 E - 8th


 S - 16th


 T - 32nd


 X - 64th


 . - note dotted


 |-n-| - n-tuplets


 


 Tablature Legend


 

 
 ----------------


Important: The song above is NOT stored on the Chordie server. The original song is hosted at www.guitartabs.cc. Chordie works as a search engine and provides on-the-fly formatting. Chordie does not index songs against artists'/composers' will. To remove this song please click here.

This song is displayed as text-only. Transposing and tuning is only available for chordpro-songs.
Rate #1 of 1 versions

Jango Player

Login - add to songbook

SHARE PAGE  




You need to log in to post comments