Guitar Tabs, Chords and Lyrics
Major upgrade!! After one year development the new version of Chordie is now online! Please give feedback.


Pride and Joy  Stevie Ray Vaughan

Song: "Pride and Joy"
Artist: Stevie Ray Vaughan
Album: Texas Flood
Tabbed by: Phillip Trujeque
MedicinalMusic2002@Yahoo.com
Lazy Blues Shuffle
Tune down 1/2 step = Eb
(Guitar starts with intro)
E 4x's A E
 
 |-------------||-------------|-------------|-------------|--------------|
 |-------------||7--5--4------|7--5--4------|-------------|--------------|
 |7--5--4------||--0--0--0-7-7|--0--0--0-7--|7-7-5--4-----|7-------------|
 |--0--0--0-7-0||-------------|------------0|-----0--0-7-0|-77-4--5-5-6-6|

[B7] [A7] [E7] [(B7)]  
 
 |---------------|---------------|---------------|----------------||
 |------------6-6|7--------------|---------------|----------------||
 |----6-6-9-9----|--0-4-4-5-5-6-6|7--------------|----------------||
 |7-7------------|---------------|-70-4-4-5-5-6-6|7-5-6-7-7-7-7-7-||

Well you've...
1st Verse:w/Bass Fig.1
[(E)]  
 
 |-------------|---------------|-------------|---------------|
 |-------------|---------------|-------------|---------------|
 |7--5--4------|7--------------|7--5--4------|7--------------|
 |--0--0--0-7-7|--0-4---5-5-7-7|--0--0--0-7-7|--0-4-0-7-0-6-0|

Heard about love...
[A7] [(E)] [B7]  
 
 |---------------|---------------|---------------|------------|---------------|
 |------------4-4|7-7-4-4--------|---------------|------------|--------9-9-8-8|
 |----4-4-7-7----|--------7-7-4-4|7-----------4-0|7--5--4--3--|----5-6--------|
 |5-5------------|---------------|--0-4-0-7-0----|--0--0--0--0|7-7------------|

A E B7(end Bass Fig.1)
 
 |--------------|--------7-7-7--8-8|------------7-8-9||
 |7-7-----------|----6-6-----------|9-0-8-9---9------||
 |----4-0-5--6-6|7-7---------------|-----------------||
 |--------------|------------------|-----------------||

Yeah I....
2nd Verse:w/Bass Fig.1
[E]  
 
 |---------------|-------------|---------------|---------------|
 |---------------|-------------|---------------|---------------|
 |7-----------4--|7--5--4------|7-----------4--|7--------------|
 |--0-4-0-7-0---0|--0--0--0-7-0|--0-4-0-7-0---0|--0-4-0-7-0-6-0|

Love my baby...
[A7] [(E)] [B7]  
 
 |---------------|---------------|---------------|------------|--------|
 |------------4-4|7-7-4-4--------|---------------|------------|--------|
 |----4-4-7-7----|--------7-7-4-4|7-----------4-0|7--5--4--3--|2-------|
 |5-5------------|---------------|--0-4-0-7-0----|--0--0--0--0|--5-4-2-|

[A] [E]  
 
 |---------------|---------------|-------------||
 |---------------|---------------|-------------||
 |----4-4-5-5-6--|7--------------|----------6-6||
 |5-5------------|--0-4-0-5-0-6-0|7-x-6-7------||

Yeah I....
3rd Verse:
 
 |---------------|---------------|---------------|---------------|
 |---------------|---------------|---------------|------------567|
 |7-----------6--|7-----------6--|7--------------|777-777-777----|
 |---------------|---------------|---------------|---------------|

Love my lady..she long and lean...
[A] [E] [B7]  
 
 |-------------|---------------|---------------|------------|---------------|
 |7--5--4------|--------7-7----|---------------|------------|--------9---8--|
 |--0--0--0-7-0|----4-4-----6-6|7-----------4--|7--5--4--3--|----6-x--------|
 |-------------|5-5------------|--0-4-0-7-0---0|--0--0--0--0|7-0-------0---0|

[A7] [E] [B7]  
 
 |-----------------|---------------|---------------||
 |9----------------|---------------|---------------||
 |-9-0-4--4-5-5-6--|7-----------4--|7---4-------4-4||
 |-----------------|--0-4-0-7-0---0|--0---7--7-7---||

1st Solo:
[E]  
 
 |---------------|----666-7--8-8|9-9-7-7-6-6----|------------|
 |----666-777-888|999-------x---|------------9-9|------------|
 |777------------|--------------|---------------|7-7-5-5-4---|
 |---------------|--------------|---------------|-----------7|

( Tab from: http://www.guitartabs.cc/tabs/s/stevie_ray_vaughan/pride_and_joy_btab_ver_2.html )
[A7] [E7]  
 
 |------------|---------------|---------------|
 |------------|---------------|---------------|
 |------------|----4-4-5-5-6-6|7-----------4--|
 |5--3--2---00|5-5------------|--0-4-0-7-0---0|

[E7] [B7] [A7] [E] [E] [C9]  
 
 |------------|---------------|---------------|---------------|----------------||
 |------------|--------9-9-8-8|7--------------|---------------|----------------||
 |7--5--4--3--|----6-6--------|--0-4---5-5--6-|7--------------|-------------6--||
 |--0--0--0--0|7-7------------|---------------|--0-4-0-5-0--6-|7-5-6-7--7-7----||

[E]  
 
 |-------x---------|---------------|---------------|---------------|
 |--------x--------|---------------|---------------|---------------|
 |7-7------4-------|7--------------|7-7-5-5-4-x----|7--------------|
 |----4------7-7---|--0-4-4-5-5-7-7|------------7-7|--0-4-4-7-7-6-6|

[A7] [E] [B7]  
 
 |---------------|---------------|-------------|---------------|---------------|
 |---------------|---------------|-------------|---------------|------------6-6|
 |---------------|----4-4-555-456|7--5--4------|------------4-4|----5-6-9-9----|
 |5-5-3-3-2-2-0-0|5-5------------|--0--0--0-7-7|0-0-3-4-7-7----|7-7------------|

[A7] [E7]  
 
 |-----------------|---------------|-------------||
 |--------2-2-4-2--|---------------|2-2----------||
 |0-0-3-4---------4|--------2-2-4-4|----4-2-2-4-4||
 |-----------------|0-0-3-4--------|-------------||

Well I...
4th Verse:
 
 |---------------|---------------|---------------|-------------|
 |---------------|---------------|---------------|-------------|
 |7-----------6--|7-----------6--|7--------------|7--5--4------|
 |---------------|---------------|---------------|--0--0--0-7-0|

Love my baby like the...
[A7] [E] [B7]  
 
 |----------|---------------|-------------|--------------|---------------|
 |----------|---------------|-------------|--------------|--------9-0-8-0|
 |----------|----4-4-5-5-6--|7--5--4------|7-------------|----6-6--------|
 |5--3--2--0|5-5------------|--0--0--0-7-0|-70-4-4-5-5-6-|7-7------------|

[A7] [E7]  
 
 |-------------|---------------|---------------||
 |7-x-8-x-9----|---------------|---------------||
 |---------x-9-|7-----------4--|------------5-5||
 |-------------|--0-4-0-5-0---x|7-x-6-7-7-7----||

Yeah I...
5th Verse:w/Bass Fig.1
[E]  
 
 |-------------|---------------|-------------|---------------|
 |-------------|---------------|-------------|---------------|
 |7--5--4------|7--------------|7--5--4------|7--------------|
 |--0--0--0-7-7|--0-4---5-5-7-7|--0--0--0-7-7|--0-4-0-7-0-6-0|

Love my baby...
[A7] [(E)] [B7]  
 
 |---------------|---------------|---------------|------------|---------------|
 |------------4-4|7-7-4-4--------|---------------|------------|--------9-9-8-8|
 |----4-4-7-7----|--------7-7-4-4|7-----------4-0|7--5--4--3--|----5-6--------|
 |5-5------------|---------------|--0-4-0-7-0----|--0--0--0--0|7-7------------|

[A] [E7] [B7]  
 
 |--------------|--------7-7-7--8-8|------------7-8-9||
 |7-7-----------|----6-6-----------|9-0-8-9---9------||
 |----4-0-5--6-6|7-7---------------|-----------------||
 |--------------|------------------|-----------------||

Outro Solo:
[E7] [A7]  
 
 |------------6-6|7-7-6-6--------|-------------|----------------|---------------|
 |----6-6-9-0----|--------9-9-6-6|-------------|----------------|---------------|
 |7-7------------|---------------|7--5--4------|----------------|----4-4-5-5-7-7|
 |---------------|---------------|--0--0--0-7-7|0-0-2-2-3-3-4---|5-5------------|

[E7] [B7] [A7]  
 
 |---------------|-------------|----------------|---------------|---------------|
 |7-7-5-5-4-4-3-3|-------------|----------------|------------4--|---------------|
 |---------------|7--5--4------|7---------------|----6-6-7-7---0|----4-4-5-5-6-6|
 |---------------|--0--0--0-7-0|-70--4-4-5-5-6-6|7-7------------|5-5------------|

E7 Eb7#9 E7#9 ~~~~~~~~~~~~~~
 
 |----------------|--------------|----------------|--------------||
 |----------------|--------------|----------------|--------------||
 |7---------------|----6-7^7-----|----------------|--------------||
 |-70--4-0-5-0-6-0|7-7-----------|----------------|--------------||


Important: The song above is NOT stored on the Chordie server. The original song is hosted at www.guitartabs.cc. Chordie works as a search engine and provides on-the-fly formatting. Chordie does not index songs against artists'/composers' will. To remove this song please click here.

Text color:
Chord color:
Chord grids: 
Font size:    
Page size: 

A A7 B7 C9 E E7
Rate #1 of 6 versions

Jango Player

Login - add to songbook

SHARE PAGE  



You need to log in to post comments