Guitar Tabs, Chords and Lyrics
Major upgrade!! After one year development the new version of Chordie is now online! Please give feedback.


Voodoo Chile  Stevie Ray Vaughan

By Stevie Ray Vaughnn
by Brian S
this is fairly decent dude!
with vox wah and fuzz Dis. pedal :
 
 e----------------------------------------------------|
 b----------------------------------------------------|
 g--9~~--7-----7-----------------9~~-7----7~h9--------| repeat..3x?
 d----------9-----7--7--9p7-------------9-------7~~~--|
 a---------------------------9------------------------|
 e----------------------------------------------------|

main rif 2x
 
 e----------------------------|--------------------2---|
 b---------------10b-r10-8----|--------2h4p2p0-----2---|
 g--9--7-----7--------------9-|------------------------|
 d--------9-------------------|--2--2-----------2------|
 a----------------------------|--2--2------------------|
 e----------------------------|--0--0------------------|
 e----------------------------|-------------------2----|
 b----------------------------|-------------------2----|
 g--14b~~~-14b-14b-r14-12~~~~-|------------------------|
 d----------------------------|--2--2-----2----2-------|
 a----------------------------|--2--2-----2------------|
 e----------------------------|--0--0--h3-0------------|

finger skills used
 
 e--^^^^^^^^^^^^^^^^^^^^^^^------------------------------|
 b-------------------------------------------------------|
 g--3b(1/2)-3b-3b--3b(1/4)--3b-3b-3b(slight)-------------|
 d--------------------------------------------2--2-----2-|
 a--------------------------------------------2--2-----2-|
 e--------------------------------------------0--0--h3-0-|

Verse :
 
 e----------------------------------------------------|
 b----------------------------------------------------|
 g----------------------------------------------------|
 d--2-----------------------------------------2-------|
 a--2-----------------------------------------2-------|
 e--0--------------------------------------3--0-------|

1.Well im standing next to a mountain
 
 e------------------------------------------------------|
 b------------------------------------------------------|
 g----------------------------------------------2h4p2p0-|
 d-----------------------------------------2--2---------|
 a-----------------------------------------2--2---------|
 e-----------------------------------------0--0---------|

Which toppled down with the edge of my hand...
 
 e------------------------------------------|
 b--------------------------15b~~-r15--12~~-|
 g-14b~~~/0--------2h4p2p0------------------|
 d--------------2---------------------------|
 a-----------2--2---------------------------|
 e-----------0--0---------------------------|

Chorus :
[C7] [D7]  
 
 e--------------0---0---0---0-------------------------|
 b--------------1---1---1---1------3---3---3----------|
 g--------------3---3---3---3------5---5---5-etc.-----|
 d--------------2---2---2---2------4---4---4----------|
 a--------------3---3---3---3--5/--5---5---5----------|
 e----------------------------------------------------|

Cause im a Voodoo Chile............. lord knows
 
 e----------------------------------------------------|
 b----------------------------------------------------|
 g------------------------------------2---------------|
 d------------------------------2-----2---------------|
 a---------------------------2--2-----2---------------|
 e---------------------------0--0--3--0---------------|

I'm a voodoo chile.....
right to the solo! :::
 
 e-----------------|-----------------------------------|
 b-----------------|--15b~~--15b-r15-12-15-15b~~----12-|
 g------9b-9-------|-----------------------------14b---|
 d--7h9------9^7---|-----------------------------------|
 a---------------9~|-----------------------------------|
 e-----------------|-----------------------------------|
 e-------------------------------------12-15b(17)~~---|
 b---------------------------------15b----------------|
 g----12b-r12-----------------------------------------|
 d-14---------14p12-----------------------------------|
 a------------------(14p12----------------------------|
 e-------------------------15p12)---------------------|
 e-15b(17)--15b(18)---12h15p12--------------------------|
 b-----------------------------15p12h15-----------------|
 g--------------------------------------14--12----------|
 d---------------------------------------------12^14----|
 a---------------------------------------------------12-|
 e------------------------------------------------------|
 e----------------------------------------------------|
 b----------------------------------------------------|
 g--12---12---12--------------------------------------|
 d--14b--14b--14b--14b-14b--r14p12----------12~~~~----|
 a---------------------------------14-12-14-----------|
 e----------------------------------------------------|


Important: The song above is NOT stored on the Chordie server. The original song is hosted at www.guitartabs.cc. Chordie works as a search engine and provides on-the-fly formatting. Chordie does not index songs against artists'/composers' will. To remove this song please click here.

Text color:
Chord color:
Chord grids: 
Font size:    
Page size: 

C7 D7
Rate #1 of 2 versions

Jango Player

Login - add to songbook

SHARE PAGE  




You need to log in to post comments