Guitar Tabs, Chords and Lyrics
Server problems seems to be fixed. Chordie has been experiencing problems with songs disappearing. These issues now seems to be fixed, but still verifying the fix. If you find anything strange, please email admin@chordie.com.


Zorbing  Stornoway

Title: Zorbing
Band: Stornoway
Tabbed by: Roy de Smet
INTRO
 
 e:----------------------------------------|
 B:----------------------------------------|
 G:----------------------------------------|
 D:----------------------------------------|
 A:----------------------------------------|
 E:-5--5-5--5-5--5-5--5-5--5-5--5-5--5-5---|

1ST VERSE
 
 e:----------------------------------------|
 B:----------------------------------------|
 G:----------------------------------------|
 D:----------------------------------------|
 A:----------------------------------------|
 E:-5--5-5--5-5--5-5--5-5--5-5--5-5--5-5---|

1ST CHORUS
 
 e:-------------------------------------------|
 B:-------------------------------------------|
 G:-------------------------------------------|
 D:-------------------------------------------|
 A:---------5-5-------5-5-------5-5-------0-0-|
 E:-5--5-5-------5-5-------5-5-------0-0------|

Conquers shining on the ground,
The air is cooler
And i feel like i just started uni
Walking backwards to my van
Your at your window,
And im tripping every time i think of
Lying in your attic
I can feel the static
The storm has broken, Heavens open
[A]Send my body out to [Bm7]work
But leave my senses
[A]In orbit over s[E]outh east L[D]ondon
[A]Wind the window down and p[Bm7]inch
Me on the shoulder[A]
Whilst i'll be driving o[G]ff to dream [E]off
( Tab from: http://www.guitartabs.cc/tabs/s/stornoway/zorbing_tab.html )
[A]Lying [D]in your attic
[A]I can f[D]eel the static[A]
The s[D]torm has broken, H[E]eavens [D]open
[A]So e[D]lectrifying, [A]Oh im [D]nearly flying
[A]Lost my [D]heart between the s[E]heets of l[D]ightening
[A]I've been singing you this [Bm7]song,
Inside a bubble,
[A]Been Zorbing through the s[E]treets of C[D]ali,
[A]We were always meant to [Bm7]be,
Zorbing together, [A]And i think it is high [G]time we s[E]tarted
[A]Lying [D]in your attic
[A]I can f[D]eel the static[A]
The [D]storm is breaking, w[E]indows s[D]haking
[A]So e[D]lectrifying, [A]Oh im [D]nearly flying
[A]Lost my [D]heart between the s[E]heets of l[D]ightening
[A]Lying [D]in your attic
[A]I can f[D]eel the static[A]
The s[D]torm has broken, H[E]eavens [D]open
[A]So e[D]lectrifying, [A]Oh im [D]nearly flying
[A]Lost my [D]heart between the s[E]heets of l[D]ightening
OUTRO: A | D | A | D | A | D | G | E

Important: The song above is NOT stored on the Chordie server. The original song is hosted at www.guitartabs.cc. Chordie works as a search engine and provides on-the-fly formatting. Chordie does not index songs against artists'/composers' will. To remove this song please click here.

Text color:
Chord color:
Chord grids: 
Font size:    
Page size: 

A Bm7 D E G
Rate #1 of 6 versions

Jango Player

Login - add to songbook

SHARE PAGE  




You need to log in to post comments