Guitar Tabs, Chords and Lyrics
Server problems seems to be fixed. Chordie has been experiencing problems with songs disappearing. These issues now seems to be fixed, but still verifying the fix. If you find anything strange, please email admin@chordie.com.


Angel in the Swamp   Story of the Year

 
 ||-------------------------------------------------------||
 ||o-----------------------------------------------------o||
 ||----------9-9b9.5-9b9.5-----------9-9b9.5-9b9.5-9b9.5--||
 ||-------------------------------------------------------||
 ||o---------7-7b7.5-7b7.5-----------7-7b7.5-7b7.5-7b7.5-o||
 ||--0-0-0-0---------------0-0-0-0-0----------------------||

 


 |


 | Gtr II


 | W 3x


 

 
 ||-------------------------------------------------------||
 ||o-----------------------------------------------------o||
 ||-------------------------------------------------------||
 ||-------------------------------------------------------||
 ||o-----------------------------------------------------o||
 ||-------------------------------------------------------||

 


 


 S S S S S S S S S S S S S E.


 

 
 |----------------------------------------|
 |----------------------------------------|
 |---------9-9b9.5-9b9.5------------------|
 |---------------------------2-2---2------|
 |---------7-7b7.5-7b7.5-----2-2-0-2------|
 |-0-0-0-0---------------0-0-2-2-0-2------|

 


 |


 | H S S S S S E.


 

 
 |----------------------------------------|
 |----------------------------------------|
 |----------------------------------------|
 |---------------------------2-2---2------|
 |---------------------------2-2-0-2------|
 |-------------------------0-2-2-0-2------|

 


 


 [2/4] H [4/4] S E. S S S S S S E T S. T S.


 

 
 |----------||-----------------------------------||
 |----------||o---------------------------------o||
 |----------||-----------------------------------||
 |----------||---------------------0h2--0h2------||
 |----------||o-0-2-----------------------------o||
 |----------||--0-2--2-0-4-5-4-2-0---------------||

 


 |


 | W S E. S S S S S S E T S. T S.


 

 
 |----------||-----------------------------------||
 |----------||o---------------------------------o||
 |----------||-----------------------------------||
 |----------||---------------------0h2--0h2------||
 |----------||o-0-2-----------------------------o||
 |----------||--0-2--2-0-4-5-4-2-0---------------||

 


 


 ~~ ~~~


 S E. S S S S S S E Q S E. S S S S S S E Q


 

 
 |------------------------|---------------------------|
 |------------------------|---------------------------|
 |------------------------|---------------------------|
 |------------------------|---------------------------|
 |-0-2--------------------|-0-2-----------------------|
 |-0-2--2-0-4-5-4-2-0-/5--|-0-2--2-0-4-5-4-2-0-/5\----|

 


 |


 | ~~ ~~~


 | S E. S S S S S S E Q S E. S S S S S S E Q


 

 
 |------------------------|---------------------------|
 |------------------------|---------------------------|
 |------------------------|---------------------------|
 |------------------------|---------------------------|
 |-0-2--------------------|-0-2-----------------------|
 |-0-2--2-0-4-5-4-2-0-/5--|-0-2--2-0-4-5-4-2-0-/5\----|

 


 


 Verse


 W W W W


 

 
 |----------|-----------|----------|-----------|
 |----------|-----------|----------|-----------|
 |----------|-----------|----------|-----------|
 |-0--------|-----------|-9--------|-5---------|
 |-0--------|--0--------|-9--------|-5---------|
 |-0--------|--0--------|-9--------|-5---------|

 


 |


 | Gtr III


 | W W W E E H.


 

 
 |----------|-----------|----------|-----------|
 |----------|-----------|----------|-----------|
 |----------|-11--------|----------|-----------|
 |----------|-----------|-9--------|-----5-----|
 |----------|--9--------|-9--------|---5-------|
 |----------|--0--------|-9--------|-5---------|

 


 


 W W W W


 

 
 |-------------|-----------|----------|-----------|
 |-------------|-----------|----------|-----------|
 |-------------|-----------|----------|-----------|
 |-4-----------|--0--------|-9--------|-5---------|
 |-4-----------|--0--------|-9--------|-5---------|
 |-4-----------|--0--------|-9--------|-5---------|

 


 |


 | E E H. W W E E H.


 

 
 |-------------|-----------|----------|-----------|
 |-------------|-----------|----------|-----------|
 |-------------|-11--------|----------|-----------|
 |-----7-------|-----------|-9--------|-----5-----|
 |---4---------|--9--------|-9--------|---5-------|
 |-4-----------|--0--------|-9--------|-5---------|

 


 


 W


 

 
 |-----------|
 |-----------|
 |-----------|
 |-4---------|
 |-4---------|
 |-4---------|

 


 |


 | E E H.


 

 
 |-----------|
 |-----------|
 |-----------|
 |-----7-----|
 |---4-------|
 |-4---------|

 


 


 Chorus


 S S S S S S S S S S S S S S S S S S S S S S S S S S S S S S S S


 

 
 |---------------------------------|-----------------------------------|
 |---------------------------------|-----------------------------------|
 |---------------------------------|-----------------7-7-7-7-7-7-7-7---|
 |-5-5-5-5-5-5-5-5-7-7-7-7-7-7-7-7-|-9-9-9-9-9-9-9-9-7-7-7-7-7-7-7-7---|
 |-5-5-5-5-5-5-5-5-7-7-7-7-7-7-7-7-|-9-9-9-9-9-9-9-9-5-5-5-5-5-5-5-5---|
 |-5-5-5-5-5-5-5-5-7-7-7-7-7-7-7-7-|-9-9-9-9-9-9-9-9-------------------|

 


 |


 | Gtr II


 | S S S S S S S S S S S S S S S S S S S S S S S S S S S S S S S S


 

 
 |---------------------------------|-----------------------------------|
 |---------------------------------|-----------------------------------|
 |---------------------------------|-----------------7-7-7-7-7-7-7-7---|
 |-5-5-5-5-5-5-5-5-7-7-7-7-7-7-7-7-|-9-9-9-9-9-9-9-9-7-7-7-7-7-7-7-7---|
 |-5-5-5-5-5-5-5-5-7-7-7-7-7-7-7-7-|-9-9-9-9-9-9-9-9-5-5-5-5-5-5-5-5---|
 |-5-5-5-5-5-5-5-5-7-7-7-7-7-7-7-7-|-9-9-9-9-9-9-9-9-------------------|

 


 


 S S S S S S S S S S S S S S S S S E S E. E E S E. +S


 

 
 |---------------------------------|-----------------------------------|
 |---------------------------------|-----------------------------------|
 |---------------------------------|--------9------------9------(9)----|
 |-5-5-5-5-5-5-5-5-7-7-7-7-7-7-7-7-|-----------------------------------|
 |-5-5-5-5-5-5-5-5-7-7-7-7-7-7-7-7-|-0-0-0--7b7.5r0-0-0--7b7.5r=(7)----|
 |-5-5-5-5-5-5-5-5-7-7-7-7-7-7-7-7-|-0-0-0--------0-0-0----------------|

 


 |


 | S S S S S S S S S S S S S S S S S E S E. E E S E. +S


 

 
 |---------------------------------|-------12-----------12-----(12)----|
 |---------------------------------|-----------------------------------|
 |---------------------------------|--------9b9.5r=======9b9.5r=(9)----|
 |-5-5-5-5-5-5-5-5-7-7-7-7-7-7-7-7-|-----------------------------------|
 |-5-5-5-5-5-5-5-5-7-7-7-7-7-7-7-7-|-0-0-0--------0-0-0----------------|
 |-5-5-5-5-5-5-5-5-7-7-7-7-7-7-7-7-|-0-0-0--------0-0-0----------------|

 


 


 S S S S S S S S S S S S S S S S S S S S S S S S S S S S S S S S


 

 
 |---------------------------------|-----------------------------------|
 |---------------------------------|-----------------------------------|
 |---------------------------------|-----------------7-7-7-7-7-7-7-7---|
 |-5-5-5-5-5-5-5-5-7-7-7-7-7-7-7-7-|-9-9-9-9-9-9-9-9-7-7-7-7-7-7-7-7---|
 |-5-5-5-5-5-5-5-5-7-7-7-7-7-7-7-7-|-9-9-9-9-9-9-9-9-5-5-5-5-5-5-5-5---|
 |-5-5-5-5-5-5-5-5-7-7-7-7-7-7-7-7-|-9-9-9-9-9-9-9-9-------------------|

 


 |


 | S S S S S S S S S S S S S S S S S S S S S S S S S S S S S S S S


 

 
 |---------------------------------|-----------------------------------|
 |---------------------------------|-----------------------------------|
 |---------------------------------|-----------------7-7-7-7-7-7-7-7---|
 |-5-5-5-5-5-5-5-5-7-7-7-7-7-7-7-7-|-9-9-9-9-9-9-9-9-7-7-7-7-7-7-7-7---|
 |-5-5-5-5-5-5-5-5-7-7-7-7-7-7-7-7-|-9-9-9-9-9-9-9-9-5-5-5-5-5-5-5-5---|
 |-5-5-5-5-5-5-5-5-7-7-7-7-7-7-7-7-|-9-9-9-9-9-9-9-9-------------------|

 


 


 S S S S S S S S S S S S S S S S S E S E. E E S E. +S


 

 
 |---------------------------------|-----------------------------------|
 |---------------------------------|-----------------------------------|
 |---------------------------------|--------9------------9------(9)----|
 |-5-5-5-5-5-5-5-5-4-4-4-4-4-4-4-4-|-----------------------------------|
 |-5-5-5-5-5-5-5-5-4-4-4-4-4-4-4-4-|-0-0-0--7b7.5r0-0-0--7b7.5r=(7)----|
 |-5-5-5-5-5-5-5-5-4-4-4-4-4-4-4-4-|-0-0-0--------0-0-0----------------|

 


 |


 | S S S S S S S S S S S S S S S S S E S E. E E S E. +S


 

 
 |---------------------------------|-------12-----------12-----(12)----|
 |---------------------------------|-----------------------------------|
 |---------------------------------|--------9b9.5r=======9b9.5r=(9)----|
 |-5-5-5-5-5-5-5-5-4-4-4-4-4-4-4-4-|-----------------------------------|
 |-5-5-5-5-5-5-5-5-4-4-4-4-4-4-4-4-|-0-0-0--------0-0-0----------------|
 |-5-5-5-5-5-5-5-5-4-4-4-4-4-4-4-4-|-0-0-0--------0-0-0----------------|

 


 


 S E S E. E S S S S E.


 

 
 |------------------------------|
 |------------------------------|
 |--------9---------------------|
 |----------------2-2---2-------|
 |-0-0-0--7b7.5r0-2-2-0-2-------|
 |-0-0-0--------0-2-2-0-2-------|

 


 |


 | S E S E. E S S S S E.


 

 
 |-------12---------------------|
 |------------------------------|
 |--------9b9.5r================|
 |----------------2-2---2-------|
 |-0-0-0--------0-2-2-0-2-------|
 |-0-0-0--------0-2-2-0-2-------|

 


 


 S E. S S S S S S E T S. T S.


 

 
 ||-----------------------------------||
 ||o---------------------------------o||
 ||-----------------------------------||
 ||---------------------0h2--0h2------||
 ||o-0-2-----------------------------o||
 ||--0-2--2-0-4-5-4-2-0---------------||

 


 |


 | S E. S S S S S S E T S. T S.


 

 
 ||-----------------------------------||
 ||o---------------------------------o||
 ||-----------------------------------||
 ||---------------------0h2--0h2------||
 ||o-0-2-----------------------------o||
 ||--0-2--2-0-4-5-4-2-0---------------||

 


 


 ~~ ~~~


 S E. S S S S S S E Q S E. S S S S S S E Q


 

 
 |------------------------|---------------------------|
 |------------------------|---------------------------|
 |------------------------|---------------------------|
 |------------------------|---------------------------|
 |-0-2--------------------|-0-2-----------------------|
 |-0-2--2-0-4-5-4-2-0-/5--|-0-2--2-0-4-5-4-2-0-/5\----|

 


 |


 | ~~ ~~~


 | S E. S S S S S S E Q S E. S S S S S S E Q


 

 
 |------------------------|---------------------------|
 |------------------------|---------------------------|
 |------------------------|---------------------------|
 |------------------------|---------------------------|
 |-0-2--------------------|-0-2-----------------------|
 |-0-2--2-0-4-5-4-2-0-/5--|-0-2--2-0-4-5-4-2-0-/5\----|

 


 


 Verse


 W +W W W


 

 
 |----------|------------|----------|-----------|
 |----------|------------|----------|-----------|
 |----------|------------|----------|-----------|
 |-0--------|------------|-9--------|-5---------|
 |-0--------|-(0)--------|-9--------|-5---------|
 |-0--------|-(0)--------|-9--------|-5---------|

 


 |


 | Gtr III


 | W W W E E H.


 

 
 |----------|------------|----------|-----------|
 |----------|------------|----------|-----------|
 |----------|-11---------|----------|-----------|
 |----------|------------|-9--------|-----5-----|
 |----------|--9---------|-9--------|---5-------|
 |----------|--0---------|-9--------|-5---------|

 


 


 W W W W


 

 
 |-------------|-----------|----------|-----------|
 |-------------|-----------|----------|-----------|
 |-------------|-----------|----------|-----------|
 |-4-----------|--0--------|-9--------|-5---------|
 |-4-----------|--0--------|-9--------|-5---------|
 |-4-----------|--0--------|-9--------|-5---------|

 


 |


 | E E H. W W E E H.


 

 
 |-------------|-----------|----------|-----------|
 |-------------|-----------|----------|-----------|
 |-------------|-11--------|----------|-----------|
 |-----7-------|-----------|-9--------|-----5-----|
 |---4---------|--9--------|-9--------|---5-------|
 |-4-----------|--0--------|-9--------|-5---------|

 


 


 W


 

 
 |-----------|
 |-----------|
 |-----------|
 |-4---------|
 |-4---------|
 |-4---------|

 


 |


 | E E H.


 

 
 |-----------|
 |-----------|
 |-----------|
 |-----7-----|
 |---4-------|
 |-4---------|

 


 


 Chorus


 S S S S S S S S S S S S S S S S S S S S S S S S S S S S S S S S


 

 
 |---------------------------------|-----------------------------------|
 |---------------------------------|-----------------------------------|
 |---------------------------------|-----------------7-7-7-7-7-7-7-7---|
 |-5-5-5-5-5-5-5-5-7-7-7-7-7-7-7-7-|-9-9-9-9-9-9-9-9-7-7-7-7-7-7-7-7---|
 |-5-5-5-5-5-5-5-5-7-7-7-7-7-7-7-7-|-9-9-9-9-9-9-9-9-5-5-5-5-5-5-5-5---|
 |-5-5-5-5-5-5-5-5-7-7-7-7-7-7-7-7-|-9-9-9-9-9-9-9-9-------------------|

 


 |


 | Gtr II


 | S S S S S S S S S S S S S S S S S S S S S S S S S S S S S S S S


 

 
 |---------------------------------|-----------------------------------|
 |---------------------------------|-----------------------------------|
 |---------------------------------|-----------------7-7-7-7-7-7-7-7---|
 |-5-5-5-5-5-5-5-5-7-7-7-7-7-7-7-7-|-9-9-9-9-9-9-9-9-7-7-7-7-7-7-7-7---|
 |-5-5-5-5-5-5-5-5-7-7-7-7-7-7-7-7-|-9-9-9-9-9-9-9-9-5-5-5-5-5-5-5-5---|
 |-5-5-5-5-5-5-5-5-7-7-7-7-7-7-7-7-|-9-9-9-9-9-9-9-9-------------------|

 


 


 S S S S S S S S S S S S S S S S S E S E. E E S E. +S


 

 
 |---------------------------------|-----------------------------------|
 |---------------------------------|-----------------------------------|
 |---------------------------------|--------9------------9------(9)----|
 |-5-5-5-5-5-5-5-5-7-7-7-7-7-7-7-7-|-----------------------------------|
 |-5-5-5-5-5-5-5-5-7-7-7-7-7-7-7-7-|-0-0-0--7b7.5r0-0-0--7b7.5r=(7)----|
 |-5-5-5-5-5-5-5-5-7-7-7-7-7-7-7-7-|-0-0-0--------0-0-0----------------|

 


 |


 | S S S S S S S S S S S S S S S S S E S E. E E S E. +S


 

 
 |---------------------------------|-------12-----------12-----(12)----|
 |---------------------------------|-----------------------------------|
 |---------------------------------|--------9b9.5r=======9b9.5r=(9)----|
 |-5-5-5-5-5-5-5-5-7-7-7-7-7-7-7-7-|-----------------------------------|
 |-5-5-5-5-5-5-5-5-7-7-7-7-7-7-7-7-|-0-0-0--------0-0-0----------------|
 |-5-5-5-5-5-5-5-5-7-7-7-7-7-7-7-7-|-0-0-0--------0-0-0----------------|

 


 


 S S S S S S S S S S S S S S S S S S S S S S S S S S S S S S S S


 

 
 |---------------------------------|-----------------------------------|
 |---------------------------------|-----------------------------------|
 |---------------------------------|-----------------7-7-7-7-7-7-7-7---|
 |-5-5-5-5-5-5-5-5-7-7-7-7-7-7-7-7-|-9-9-9-9-9-9-9-9-7-7-7-7-7-7-7-7---|
 |-5-5-5-5-5-5-5-5-7-7-7-7-7-7-7-7-|-9-9-9-9-9-9-9-9-5-5-5-5-5-5-5-5---|
 |-5-5-5-5-5-5-5-5-7-7-7-7-7-7-7-7-|-9-9-9-9-9-9-9-9-------------------|

 


 |


 | S S S S S S S S S S S S S S S S S S S S S S S S S S S S S S S S


 

 
 |---------------------------------|-----------------------------------|
 |---------------------------------|-----------------------------------|
 |---------------------------------|-----------------7-7-7-7-7-7-7-7---|
 |-5-5-5-5-5-5-5-5-7-7-7-7-7-7-7-7-|-9-9-9-9-9-9-9-9-7-7-7-7-7-7-7-7---|
 |-5-5-5-5-5-5-5-5-7-7-7-7-7-7-7-7-|-9-9-9-9-9-9-9-9-5-5-5-5-5-5-5-5---|
 |-5-5-5-5-5-5-5-5-7-7-7-7-7-7-7-7-|-9-9-9-9-9-9-9-9-------------------|

 


 


 ( Tab from: http://www.guitartabs.cc/tabs/s/story_of_the_year/angel_in_the_swamp_tab.html )


 S S S S S S S S S S S S S S S S S E S E. E E S E. +S


 

 
 |---------------------------------|-----------------------------------|
 |---------------------------------|-----------------------------------|
 |---------------------------------|--------9------------9------(9)----|
 |-5-5-5-5-5-5-5-5-4-4-4-4-4-4-4-4-|-----------------------------------|
 |-5-5-5-5-5-5-5-5-4-4-4-4-4-4-4-4-|-0-0-0--7b7.5r0-0-0--7b7.5r=(7)----|
 |-5-5-5-5-5-5-5-5-4-4-4-4-4-4-4-4-|-0-0-0--------0-0-0----------------|

 


 |


 | S S S S S S S S S S S S S S S S S E S E. E E S E. +S


 

 
 |---------------------------------|-------12-----------12-----(12)----|
 |---------------------------------|-----------------------------------|
 |---------------------------------|--------9b9.5r=======9b9.5r=(9)----|
 |-5-5-5-5-5-5-5-5-4-4-4-4-4-4-4-4-|-----------------------------------|
 |-5-5-5-5-5-5-5-5-4-4-4-4-4-4-4-4-|-0-0-0--------0-0-0----------------|
 |-5-5-5-5-5-5-5-5-4-4-4-4-4-4-4-4-|-0-0-0--------0-0-0----------------|

 


 


 S E S E. E S S S S E.


 

 
 |------------------------------|
 |------------------------------|
 |--------9---------------------|
 |----------------2-2---2-------|
 |-0-0-0--7b7.5r0-2-2-0-2-------|
 |-0-0-0--------0-2-2-0-2-------|

 


 |


 | S E S E. E S S S S E.


 

 
 |-------12---------------------|
 |------------------------------|
 |--------9b9.5r================|
 |----------------2-2---2-------|
 |-0-0-0--------0-2-2-0-2-------|
 |-0-0-0--------0-2-2-0-2-------|

 


 


 Breakdown


 S E. S S S S S S E T S. T S.


 

 
 ||-----------------------------------||
 ||o---------------------------------o||
 ||-----------------------------------||
 ||---------------------0h2--0h2------||
 ||o-0-2-----------------------------o||
 ||--0-2--2-0-4-5-4-2-0---------------||

 


 |


 | S E. S S S S S S E T S. T S.


 

 
 ||-----------------------------------||
 ||o---------------------------------o||
 ||-----------------------------------||
 ||---------------------0h2--0h2------||
 ||o-0-2-----------------------------o||
 ||--0-2--2-0-4-5-4-2-0---------------||

 


 


 ~~ ~~~


 S E. S S S S S S E Q S E. S S S S S S E Q


 

 
 |------------------------|---------------------------|
 |------------------------|---------------------------|
 |------------------------|---------------------------|
 |------------------------|---------------------------|
 |-0-2--------------------|-0-2-----------------------|
 |-0-2--2-0-4-5-4-2-0-/5--|-0-2--2-0-4-5-4-2-0-/5\----|

 


 |


 | ~~ ~~~


 | S E. S S S S S S E Q S E. S S S S S S E Q


 

 
 |------------------------|---------------------------|
 |------------------------|---------------------------|
 |------------------------|---------------------------|
 |------------------------|---------------------------|
 |-0-2--------------------|-0-2-----------------------|
 |-0-2--2-0-4-5-4-2-0-/5--|-0-2--2-0-4-5-4-2-0-/5\----|

 


 


 W +W +W +W


 

 
 |----------|------------|-------------|---------------|
 |----------|------------|-------------|---------------|
 |----------|------------|-------------|---------------|
 |-0--------|------------|-------------|---------------|
 |-0--------|-(0)--------|--(0)--------|-(0)-----------|
 |-0--------|-(0)--------|--(0)--------|-(0)-----------|

 


 |


 | Gtr III


 | W W +W E E H.


 

 
 |----------|------------|-------------|---------------|
 |----------|------------|-------------|-----10--------|
 |----------|-11---------|-(11)--------|--------11-----|
 |----------|------------|-------------|-12------------|
 |----------|--9---------|--(9)--------|---------------|
 |----------|------------|-------------|---------------|

 


 


 +W +W +W +H H


 

 
 |-------------|-----------------|-------------|-------------|
 |-------------|-----------------|-------------|-------------|
 |-------------|-----------------|-------------|-------------|
 |-------------|-----------------|-------------|-------------|
 |--(0)--------|-(0)-------------|--(0)--------|-(0)---------|
 |--(0)--------|-(0)-------------|--(0)--------|-(0)---------|

 


 |


 | +W E E H. +W H H


 

 
 |-------------|-----------------|-------------|-------------|
 |-------------|-----10----------|-------------|-------------|
 |-(11)--------|--------11-------|-(11)--------|-11----------|
 |-------------|-12--------------|-------------|-------------|
 |-------------|-----------------|-------------|-------------|
 |-------------|-----------------|-------------|-------------|

 


 


 Chorus


 S S S S S S S S S S S S S S S S S S S S S S S S S S S S S S S S


 

 
 |---------------------------------|-----------------------------------|
 |---------------------------------|-----------------------------------|
 |---------------------------------|-----------------7-7-7-7-7-7-7-7---|
 |-5-5-5-5-5-5-5-5-7-7-7-7-7-7-7-7-|-9-9-9-9-9-9-9-9-7-7-7-7-7-7-7-7---|
 |-5-5-5-5-5-5-5-5-7-7-7-7-7-7-7-7-|-9-9-9-9-9-9-9-9-5-5-5-5-5-5-5-5---|
 |-5-5-5-5-5-5-5-5-7-7-7-7-7-7-7-7-|-9-9-9-9-9-9-9-9-------------------|

 


 |


 | Gtr II


 | S S S S S S S S S S S S S S S S S S S S S S S S S S S S S S S S


 

 
 |---------------------------------|-----------------------------------|
 |---------------------------------|-----------------------------------|
 |---------------------------------|-----------------7-7-7-7-7-7-7-7---|
 |-5-5-5-5-5-5-5-5-7-7-7-7-7-7-7-7-|-9-9-9-9-9-9-9-9-7-7-7-7-7-7-7-7---|
 |-5-5-5-5-5-5-5-5-7-7-7-7-7-7-7-7-|-9-9-9-9-9-9-9-9-5-5-5-5-5-5-5-5---|
 |-5-5-5-5-5-5-5-5-7-7-7-7-7-7-7-7-|-9-9-9-9-9-9-9-9-------------------|

 


 


 S S S S S S S S S S S S S S S S S E S E. E E S E. +S


 

 
 |---------------------------------|-----------------------------------|
 |---------------------------------|-----------------------------------|
 |---------------------------------|--------9------------9------(9)----|
 |-5-5-5-5-5-5-5-5-7-7-7-7-7-7-7-7-|-----------------------------------|
 |-5-5-5-5-5-5-5-5-7-7-7-7-7-7-7-7-|-0-0-0--7b7.5r0-0-0--7b7.5r=(7)----|
 |-5-5-5-5-5-5-5-5-7-7-7-7-7-7-7-7-|-0-0-0--------0-0-0----------------|

 


 |


 | S S S S S S S S S S S S S S S S S E S E. E E S E. +S


 

 
 |---------------------------------|-------12-----------12-----(12)----|
 |---------------------------------|-----------------------------------|
 |---------------------------------|--------9b9.5r=======9b9.5r=(9)----|
 |-5-5-5-5-5-5-5-5-7-7-7-7-7-7-7-7-|-----------------------------------|
 |-5-5-5-5-5-5-5-5-7-7-7-7-7-7-7-7-|-0-0-0--------0-0-0----------------|
 |-5-5-5-5-5-5-5-5-7-7-7-7-7-7-7-7-|-0-0-0--------0-0-0----------------|

 


 


 S S S S S S S S S S S S S S S S S S S S S S S S S S S S S S S S


 

 
 |---------------------------------|-----------------------------------|
 |---------------------------------|-----------------------------------|
 |---------------------------------|-----------------7-7-7-7-7-7-7-7---|
 |-5-5-5-5-5-5-5-5-7-7-7-7-7-7-7-7-|-9-9-9-9-9-9-9-9-7-7-7-7-7-7-7-7---|
 |-5-5-5-5-5-5-5-5-7-7-7-7-7-7-7-7-|-9-9-9-9-9-9-9-9-5-5-5-5-5-5-5-5---|
 |-5-5-5-5-5-5-5-5-7-7-7-7-7-7-7-7-|-9-9-9-9-9-9-9-9-------------------|

 


 |


 | S S S S S S S S S S S S S S S S S S S S S S S S S S S S S S S S


 

 
 |---------------------------------|-----------------------------------|
 |---------------------------------|-----------------------------------|
 |---------------------------------|-----------------7-7-7-7-7-7-7-7---|
 |-5-5-5-5-5-5-5-5-7-7-7-7-7-7-7-7-|-9-9-9-9-9-9-9-9-7-7-7-7-7-7-7-7---|
 |-5-5-5-5-5-5-5-5-7-7-7-7-7-7-7-7-|-9-9-9-9-9-9-9-9-5-5-5-5-5-5-5-5---|
 |-5-5-5-5-5-5-5-5-7-7-7-7-7-7-7-7-|-9-9-9-9-9-9-9-9-------------------|

 


 


 S S S S S S S S S S S S S S S S S E S E. E E S E. +S


 

 
 |---------------------------------|-----------------------------------|
 |---------------------------------|-----------------------------------|
 |---------------------------------|--------9------------9------(9)----|
 |-5-5-5-5-5-5-5-5-4-4-4-4-4-4-4-4-|-----------------------------------|
 |-5-5-5-5-5-5-5-5-4-4-4-4-4-4-4-4-|-0-0-0--7b7.5r0-0-0--7b7.5r=(7)----|
 |-5-5-5-5-5-5-5-5-4-4-4-4-4-4-4-4-|-0-0-0--------0-0-0----------------|

 


 |


 | S S S S S S S S S S S S S S S S S E S E. E E S E. +S


 

 
 |---------------------------------|-------12-----------12-----(12)----|
 |---------------------------------|-----------------------------------|
 |---------------------------------|--------9b9.5r=======9b9.5r=(9)----|
 |-5-5-5-5-5-5-5-5-4-4-4-4-4-4-4-4-|-----------------------------------|
 |-5-5-5-5-5-5-5-5-4-4-4-4-4-4-4-4-|-0-0-0--------0-0-0----------------|
 |-5-5-5-5-5-5-5-5-4-4-4-4-4-4-4-4-|-0-0-0--------0-0-0----------------|

 


 


 S E S E. E E S E E


 

 
 |------------------------------|
 |------------------------------|
 |--------9------------9-----11-|
 |------------------------------|
 |-0-0-0--7b7.5r0-0-0--7b7.5r=9-|
 |-0-0-0--------0-0-0-----------|

 


 |


 | S E S E. E E S E E


 

 
 |-------12-----------12-----14-|
 |------------------------------|
 |--------9b9.5r=======9b9.5r11-|
 |------------------------------|
 |-0-0-0--------0-0-0-----------|
 |-0-0-0--------0-0-0-----------|

 


 


 S E S E. E E S E E S E S E. E S S S S E.


 

 
 |------------------------------|------------------------------|
 |------------------------------|------------------------------|
 |--------9------------9-----11-|--------9---------------------|
 |------------------------------|----------------2-2---2-------|
 |-0-0-0--7b7.5r0-0-0--7b7.5r=9-|-0-0-0--7b7.5r0-2-2-0-2-------|
 |-0-0-0--------0-0-0-----------|-0-0-0--------0-2-2-0-2-------|

 


 |


 | S E S E. E E S E E S E S E. E S S S S E.


 

 
 |-------12-----------12-----14-|-------12---------------------|
 |------------------------------|------------------------------|
 |--------9b9.5r=======9b9.5r11-|--------9b9.5r================|
 |------------------------------|----------------2-2---2-------|
 |-0-0-0--------0-0-0-----------|-0-0-0--------0-2-2-0-2-------|
 |-0-0-0--------0-0-0-----------|-0-0-0--------0-2-2-0-2-------|

 


 


 Outro


 S E. S S S S S S E T S. T S.


 

 
 ||-----------------------------------||
 ||o---------------------------------o||
 ||-----------------------------------||
 ||---------------------0h2--0h2------||
 ||o-0-2-----------------------------o||
 ||--0-2--2-0-4-5-4-2-0---------------||

 


 |


 | S E. S S S S S S E T S. T S.


 

 
 ||-----------------------------------||
 ||o---------------------------------o||
 ||-----------------------------------||
 ||---------------------0h2--0h2------||
 ||o-0-2-----------------------------o||
 ||--0-2--2-0-4-5-4-2-0---------------||

 


 


 Q.=95


 9/8


 ~~


 S E. S S S S S S E Q S E. S S S S S S E E E E


 

 
 |------------------------|------------------------------|
 |------------------------|------------------------------|
 |------------------------|------------------------------|
 |------------------------|------------------------------|
 |-0-2--------------------|-0-2----------------/5-0-2----|
 |-0-2--2-0-4-5-4-2-0-/5--|-0-2--2-0-4-5-4-2-0-/5-0-2----|

 


 |


 | ~~


 | S E. S S S S S S E Q S E. S S S S S S E E E E


 

 
 |------------------------|------------------------------|
 |------------------------|------------------------------|
 |------------------------|------------------------------|
 |------------------------|------------------------------|
 |-0-2--------------------|-0-2----------------/5-0-2----|
 |-0-2--2-0-4-5-4-2-0-/5--|-0-2--2-0-4-5-4-2-0-/5-0-2----|

 


 


 Holy Crap!


 [2/4] E S S S E S E S S S E S E S S S E S E S S S E S


 

 
 |-------------|-------------|-------------|----------------|
 |-------------|-------------|-------------|----------------|
 |-------------|-------------|-------------|----------------|
 |-------------|-------------|-------------|----------------|
 |---------5---|---------5---|---------5---|---------5------|
 |-2-5-2-2---0-|-2-5-2-2---0-|-2-5-2-2---0-|-2-5-2-2---0----|

 


 |


 | H H H H


 

 
 |-------------|-------------|-------------|----------------|
 |-------------|-------------|-------------|----------------|
 |-------------|-------------|-------------|----------------|
 |-------------|-------------|-------------|----------------|
 |-------------|-------------|-------------|----------------|
 |-------------|-------------|-------------|----------------|

 


 


 E S S S E S E S S S E S E S S S E S E S S S E S 3x


 

 
 ||--------------|-------------|-------------|-----------------||
 ||o-------------|-------------|-------------|----------------o||
 ||--------------|-------------|-------------|-----------------||
 ||--------------|-------------|-------------|-----------------||
 ||o---------5---|---------5---|---------5---|---------5------o||
 ||--2-5-2-2---0-|-2-5-2-2---0-|-2-5-2-2---0-|-2-5-2-2---0-----||

 


 |


 | E S S S E S E S S S E S E S S S E S E S S S E S 3x


 

 
 ||--------------|-------------|-------------|-----------------||
 ||o-------------|-------------|-------------|----------------o||
 ||--------------|-------------|-------------|-----------------||
 ||--------------|-------------|-------------|-----------------||
 ||o---------5---|---------5---|---------5---|---------5------o||
 ||--2-5-2-2---0-|-2-5-2-2---0-|-2-5-2-2---0-|-2-5-2-2---0-----||

 


 


 E S S S E S E S S S E S S S S S S S S S Q Q


 

 
 |-------------|-------------|-----------------|---------|
 |-------------|-------------|-5-5-5-5-5-5-5-5-|---------|
 |-------------|-------------|-----------------|---------|
 |-------------|-------------|-2-2-2-2-2-2-2-2-|-0--0----|
 |---------5---|---------5---|-----------------|-0--0----|
 |-2-5-2-2---0-|-2-5-2-2---0-|-----------------|-0--0----|

 


 |


 | E S S S E S E S S S E S S S S S S S S S Q Q


 

 
 |-------------|-------------|-----------------|---------|
 |-------------|-------------|-5-5-5-5-5-5-5-5-|---------|
 |-------------|-------------|-----------------|---------|
 |-------------|-------------|-2-2-2-2-2-2-2-2-|-0--0----|
 |---------5---|---------5---|-----------------|-0--0----|
 |-2-5-2-2---0-|-2-5-2-2---0-|-----------------|-0--0----|

 


 


 [4/4] E S S S E. E S S S E. E S S S E. E S S E S S 4x


 

 
 ||------------------------|----------------------------||
 ||o-----------------------|---------------------------o||
 ||------------------------|----------------------------||
 ||------------------------|----------------------------||
 ||o-----------------------|---------------------------o||
 ||--0-2-2-0-2--0-2-2-0-2--|-0-2-2-0-2--0-5-4-0-5-4-----||

 


 |


 | E S S S E. E S S S E. E S S S E. E S S E S S 4x


 

 
 ||------------------------|----------------------------||
 ||o-----------------------|---------------------------o||
 ||------------------------|----------------------------||
 ||------------------------|----------------------------||
 ||o-----------------------|---------------------------o||
 ||--0-2-2-0-2--0-2-2-0-2--|-0-2-2-0-2--0-5-4-0-5-4-----||

 


 


 E Q H E


 

 
 |----------------*|
 |----------------*|
 |----------------*|
 |-0-2------------*|
 |-0-2------------*|
 |-0-2------------*|

 


 |


 | E Q H E


 

 
 |----------------*|
 |----------------*|
 |----------------*|
 |-0-2------------*|
 |-0-2------------*|
 |-0-2------------*|
 --------------------------------------------------------------------------------

 


 


 Duration Legend


 

 
 ---------------
 W - whole; H - half; Q - quarter; E - 8th; S - 16th; T - 32nd; X - 64th; a - acciaccatura

 


 + - note tied to previous; . - note dotted; .. - note double dotted


 Uncapitalized letters represent notes that are staccato (1/2 duration)


 Irregular groupings are notated above the duration line


 Duration letters will always appear directly above the note/fret number it represents the


 duration for. Duration letters with no fret number below them represent rests. Multi-


 bar rests are notated in the form Wxn, where n is the number of bars to rest for. Low


 melody durations appear below the staff


 


 Tablature Legend


 

 
 ----------------

 


 h - hammer-on


 p - pull-off


 b - bend


 pb - pre-bend


 r - bend release (if no number after the r, then release immediately)


 /\ - slide into or out of (from/to "nowhere")


 s - legato slide


 S - shift slide


 - natural harmonic


 (n) - artificial harmonic


 n(n) - tapped harmonic


 ~ - vibrato


 tr - trill


 T - tap


 TP - trem. picking


 PM - palm muting


 \n/ - tremolo bar dip; n = amount to dip


 \n - tremolo bar down


 n/ - tremolo bar up


 /n\ - tremolo bar inverted dip


 = - hold bend; also acts as connecting device for hammers/pulls


 - volume swell (louder/softer)


 x - on rhythm slash represents muted slash


 o - on rhythm slash represents single note slash


 


 Misc Legend


 

 
 -----------

 


 | - bar


 || - double bar


 ||o - repeat start


 o|| - repeat end


 *| - double bar (ending)


 : - bar (freetime)


 $ - Segno


 & - Coda


 Tempo markers - = BPM(8/16=s8/s16), where s8 = swing 8ths, s16 = swing 16ths


 


 


 

 
 --------------------------------------------------------------------------------


Important: The song above is NOT stored on the Chordie server. The original song is hosted at www.guitartabs.cc. Chordie works as a search engine and provides on-the-fly formatting. Chordie does not index songs against artists'/composers' will. To remove this song please click here.

This song is displayed as text-only. Transposing and tuning is only available for chordpro-songs.
Rate #1 of 3 versions

Login - add to songbook

SHARE PAGE  




You need to log in to post comments