Guitar Tabs, Chords and Lyrics
Server problems seems to be fixed. Chordie has been experiencing problems with songs disappearing. These issues now seems to be fixed, but still verifying the fix. If you find anything strange, please email admin@chordie.com.


Cannonball   Story of the Year

 
 |-------------------|-----------------------|
 |-------------------|-----------------------|
 |-------------------|-----------------------|
 |-------------------|-----------------------|
 |-0-7-8--0-0-3-5--0-|-0-7-8--0-0-3--8-8-8-8-|
 |-0------0-0------0-|-0------0-0------------|

 


 


 To Coda


 S E E. E S E E. E S E. S S S S S S S S S S S S


 

 
 |-------------------|---------------------------------|
 |-------------------|---------------------------------|
 |-------------------|---------------------------------|
 |-------------------|---------------------------------|
 |-0-7-8--0-0-3-5--0-|-0-7--8-8-8-8-8-8-8-8-3-3-3-3----|
 |-0------0-0------0-|-0-------------------------------|

 


 


 PM--| PM| ~~ PM--| PM|


 S E E. E S S S S S S S S S S S E. E S S S S S S S S


 

 
 ||----------------------------|-------------------------------|
 ||o---------------------------|-------------------------------|
 ||----------------------------|-------------------------------|
 ||----2-3--0------------------|-3h5-0-------------------------|
 ||o-0-2-3--0--0-0-0---0-0-3h5-|-------3--0-0-0-0---0-0-3-5----|
 ||--0-2-3--0--0-0-0---0-0-----|------------0-0-0---0-0--------|

 


 


 S S S E. E S S S S S S S S S S S E. E E. E. E


 

 
 |----------------------------|------------------------||
 |----------------------------|-----------------------o||
 |----------------------------|------------------------||
 |-3-5-0-2--------------------|-3-5-x-5--5-5--5--5-----||
 |----------3-0-0-0---0-0-3-5-|-----x-3--3-3--2--2----o||
 |------------0-0-0---0-0-----|-----x------------------||

 


 


 [3/16] E. [4/4] W


 

 
 |--------------|------|
 |--------------|------|
 |--------------|------|
 |-5------------|-5----|
 |-2------------|-5----|
 |--------------|-5----|

 


 


 Q S S E S S E E E Q S S E S S E E E


 

 
 |--------------------|--------------------|
 |--------------------|--------------------|
 |--------------------|-5--5-5-5-5-5-5-5-5-|
 |-3--3-3-3-3-3-3-3-3-|-5--5-5-5-5-5-5-5-5-|
 |-3--3-3-3-3-3-3-3-3-|-3--3-3-3-3-3-3-3-3-|
 |-3--3-3-3-3-3-3-3-3-|--------------------|

 


 


 Q S S E S S E E E S S S S S S S S E. E. E


 

 
 |--------------------|----------------------------|
 |--------------------|----------------------------|
 |--------------------|----------------------------|
 |-5--5-5-5-5-5-5-5-5-|-5-5-5-5-5-5-5-5--0---2---3-|
 |-5--5-5-5-5-5-5-5-5-|-5-5-5-5-5-5-5-5--0---2---3-|
 |-5--5-5-5-5-5-5-5-5-|-5-5-5-5-5-5-5-5--0---2---3-|

 


 


 +E E S S E S S E E E Q S S E S S E E E


 

 
 |-----------------------|--------------------|
 |-----------------------|--------------------|
 |-----------------------|-5--5-5-5-5-5-5-5-5-|
 |-(3)-3-3-3-3-3-3-3-3-3-|-5--5-5-5-5-5-5-5-5-|
 |-(3)-3-3-3-3-3-3-3-3-3-|-3--3-3-3-3-3-3-3-3-|
 |-(3)-3-3-3-3-3-3-3-3-3-|--------------------|

 


 


 D.S. al Coda


 Q S S E S S E E E [3/4] S S S S S S S S E E


 

 
 |--------------------|------------------------|
 |--------------------|------------------------|
 |--------------------|------------------------|
 |-5--5-5-5-5-5-5-5-5-|-5-5-5-5-5-5-5-5-5-5----|
 |-5--5-5-5-5-5-5-5-5-|-5-5-5-5-5-5-5-5-5-5----|
 |-5--5-5-5-5-5-5-5-5-|-5-5-5-5-5-5-5-5-5-5----|

 


 


 &


 [4/4] S E E. E H +W +W +W


 

 
 |-------------|-------------|------------|--------|
 |-------------|-------------|------------|--------|
 |-------------|-------------|------------|--------|
 |---2-3--0--0-|--(0)--------|-(0)--------|-(0)----|
 |-0-2-3--0--0-|--(0)--------|-(0)--------|-(0)----|
 |-0-2-3--0--0-|--(0)--------|-(0)--------|-(0)----|

 


 


 PM--| PM| ~~~ PM--| PM|


 S E E. E S S S S S S S S S S S E. E S S S S S S S S


 

 
 |--------------------------|--------------------------------|
 |--------------------------|--------------------------------|
 |--------------------------|--------------------------------|
 |---2-3--0-----------------|-3h5-0--------------------------|
 |-0-2-3--0-0-0-0---0-0-3h5-|-------[3]---0-0-0---0-0-3-5----|
 |-0-2-3--0-0-0-0---0-0-----|-----------0-0-0-0---0-0--------|

 


 


 S S S E. E S S S S S S S S S S S E. E E. E. E


 

 
 |----------------------------|-----------------------|
 |----------------------------|-----------------------|
 |----------------------------|-----------------------|
 |-3-5-0-2--------------------|-3-5-x-5--5-5--5--5----|
 |----------3-0-0-0---0-0-3-5-|-----x-3--3-3--2--2----|
 |------------0-0-0---0-0-----|-----x-----------------|

 


 


 [3/16] E. [4/4] W


 

 
 |----------|------|
 |----------|------|
 |----------|------|
 |-5--------|-5----|
 |-2--------|-5----|
 |----------|-5----|

 


 


 Q S S E S S E E E Q S S E S S E E E


 

 
 |--------------------|--------------------|
 |--------------------|--------------------|
 |--------------------|-5--5-5-5-5-5-5-5-5-|
 |-3--3-3-3-3-3-3-3-3-|-5--5-5-5-5-5-5-5-5-|
 |-3--3-3-3-3-3-3-3-3-|-3--3-3-3-3-3-3-3-3-|
 |-3--3-3-3-3-3-3-3-3-|--------------------|

 


 


 Q S S E S S E E E S S S S S S S S E. E. E


 

 
 |--------------------|-------------------------|
 |--------------------|-------------------------|
 |--------------------|-------------------------|
 |-5--5-5-5-5-5-5-5-5-|-5-5-5-5-5-5-5-5-0--2--3-|
 |-5--5-5-5-5-5-5-5-5-|-5-5-5-5-5-5-5-5-0--2--3-|
 |-5--5-5-5-5-5-5-5-5-|-5-5-5-5-5-5-5-5-0--2--3-|

 


 


 +E E S S E S S E E E Q S S E S S E E E


 

 
 |-----------------------|--------------------|
 |-----------------------|--------------------|
 |-----------------------|-5--5-5-5-5-5-5-5-5-|
 |-(3)-3-3-3-3-3-3-3-3-3-|-5--5-5-5-5-5-5-5-5-|
 |-(3)-3-3-3-3-3-3-3-3-3-|-3--3-3-3-3-3-3-3-3-|
 |-(3)-3-3-3-3-3-3-3-3-3-|--------------------|

 


 


 Q S S E S S E E E S S S S S S S S S S S S S S S S


 

 
 |--------------------|----------------------------------|
 |--------------------|----------------------------------|
 |--------------------|----------------------------------|
 |-5--5-5-5-5-5-5-5-5-|-5-5-5-5-5-5-5-5-5-5-5-5-5-5-5-5--|
 |-5--5-5-5-5-5-5-5-5-|-5-5-5-5-5-5-5-5-5-5-5-5-5-5-5-5--|
 |-5--5-5-5-5-5-5-5-5-|-5-5-5-5-5-5-5-5-5-5-5-5-5-5-5-5--|

 


 


 Q S S E S S E E E Q S S E S S E E E


 

 
 |--------------------|--------------------|
 |--------------------|--------------------|
 |--------------------|-5--5-5-5-5-5-5-5-5-|
 |-3--3-3-3-3-3-3-3-3-|-5--5-5-5-5-5-5-5-5-|
 |-3--3-3-3-3-3-3-3-3-|-3--3-3-3-3-3-3-3-3-|
 |-3--3-3-3-3-3-3-3-3-|--------------------|

 


 


 Q S S E S S E E E S S S S S S S S E. E. E


 

 
 |--------------------|-------------------------|
 |--------------------|-------------------------|
 |--------------------|-------------------------|
 |-5--5-5-5-5-5-5-5-5-|-5-5-5-5-5-5-5-5-0--2--3-|
 |-5--5-5-5-5-5-5-5-5-|-5-5-5-5-5-5-5-5-0--2--3-|
 |-5--5-5-5-5-5-5-5-5-|-5-5-5-5-5-5-5-5-0--2--3-|

 


 


 +E E S S E S S E E E Q S S E S S E E E


 

 
 |-----------------------|--------------------|
 |-----------------------|--------------------|
 |-----------------------|-5--5-5-5-5-5-5-5-5-|
 |-(3)-3-3-3-3-3-3-3-3-3-|-5--5-5-5-5-5-5-5-5-|
 |-(3)-3-3-3-3-3-3-3-3-3-|-3--3-3-3-3-3-3-3-3-|
 |-(3)-3-3-3-3-3-3-3-3-3-|--------------------|

 


 


 Q S S E S S E E E [3/4] S S S S S S S S E E


 

 
 |--------------------|------------------------|
 |--------------------|------------------------|
 |--------------------|------------------------|
 |-5--5-5-5-5-5-5-5-5-|-5-5-5-5-5-5-5-5--5-5---|
 |-5--5-5-5-5-5-5-5-5-|-5-5-5-5-5-5-5-5--5-5---|
 |-5--5-5-5-5-5-5-5-5-|-5-5-5-5-5-5-5-5--5-5---|

 


 


 [4/4] PM--| PM|


 S E E. E S S S S S S S S


 

 
 |--------------------------|
 |--------------------------|
 |--------------------------|
 |---2-3--0-----------------|
 |-0-2-3--0-0-0-0---0-0-0---|
 |-0-2-3--0-0-0-0---0-0-0---|

 


 


 PM--| PM| PM--| PM|


 S E E. E S S S S S S S S S E E. E S S S S S S S S


 

 
 |--------------------------|--------------------------|
 |--------------------------|--------------------------|
 |--------------------------|--------------------------|
 |---3-2--------------------|---3-2--------------------|
 |-0------3-0-0-0---0-0-0---|-0------3-0-0-0---0-0-0---|
 |-0--------0-0-0---0-0-0---|-0--------0-0-0---0-0-0---|

 


 


 PM--| PM|[1/4]


 S E E. E S S S S S S S S S E.


 

 
 |--------------------------|---------|
 |--------------------------|---------|
 |--------------------------|---------|
 |---3-2--------------------|---2-----|
 |-0------3-0-0-0---0-0-0---|-0-2-----|
 |-0--------0-0-0---0-0-0---|-0-2-----|

 


 


 [4/4] Q E E E E E S S [5/4] +E E E E E E S E E. E


 

 
 |------------------|-------------------------------|
 |------------------|-------------------------------|
 |-3--3-3-3-3-3-3---|-------------------------------|
 |-3--3-3-3-3-3-3-5-|-(5)-5-5-5-5-5------2-3---0----|
 |-1--1-1-1-1-1-1-5-|-(5)-5-5-5-5-5----0-2-3---0----|
 |----------------5-|-(5)-5-5-5-5-5----0-2-3---0----|

 


 


 [4/4] PM| PM PM| [3/4] PM| PM PM|


 

 
 |-3-| |-3-| |-3-| |-3-|

 


 S S S S S S S S S S S E E. E S S S S S S S S S S S E.


 

 
 |------------------------------|-----------------------------|
 |------------------------------|-----------------------------|
 |------------------------------|-----------------------------|
 |-----------------------3-2----|-----------------------2-----|
 |-0-0-0-0---0-0-0-0---0------3-|-0-0-0-0---0-0-0-0---0-2-----|
 |-0-0-0-0---0-0-0-0---0--------|-0-0-0-0---0-0-0-0---0-2-----|

 


 


 [4/4] Q E E E E E S S +E E E E E E E S S


 

 
 |------------------|---------------------|
 |------------------|---------------------|
 |-3--3-3-3-3-3-3---|---------------------|
 |-3--3-3-3-3-3-3-5-|-(5)-5-5-5-5-5-5-5-7-|
 |-1--1-1-1-1-1-1-5-|-(5)-5-5-5-5-5-5-5-7-|
 |----------------5-|-(5)-5-5-5-5-5-5-5-7-|
 PM----------|

 


 +E E E E E E E E E E E E E E E S S


 

 
 |-------------------|---------------------|
 |-------------------|---------------------|
 |-------------------|---------------------|
 |-(7)-7-7-7-7-7-7-7-|-----------------7---|
 |-(7)-7-7-7-7-7-7-7-|-7-7-7-7-7-7-7-7-5---|
 |-(7)-7-7-7-7-7-7-7-|-7-7-7-7-7-7-7-7-----|

 


 


 +E E E S S +E E E S S +E E E S S +E E E S S


 

 
 |--------------------------|----------------------------|
 |--------------------------|----------------------------|
 |--------------------------|----------------------------|
 |-(7)-7-7-7-3-(3)-3-3-3-5--|-(5)-5-5-5-3-(3)-3-3-3-7----|
 |-(5)-5-5-5-1-(1)-1-1-1-3--|-(3)-3-3-3-3-(3)-3-3-3-5----|
 |--------------------------|-----------3-(3)-3-3-3------|

 


 


 +E E E S S +E E E S S +E E E E E E E S S


 

 
 |-------------------------|------------------------|
 |-------------------------|------------------------|
 |-------------------------|------------------------|
 |-(7)-7-7-7-3-(3)-3-3-3-5-|-(5)-5-5-5-5-5-5-5-7----|
 |-(5)-5-5-5-1-(1)-1-1-1-3-|-(3)-3-3-3-3-3-3-3-5----|
 |-------------------------|------------------------|

 


 


 +E E E S S +E E E S S +E E E S S +E E E S S


 

 
 |-------------------------|----------------------------|
 |-------------------------|----------------------------|
 |-------------------------|----------------------------|
 |-(7)-7-7-7-3-(3)-3-3-3-5-|-(5)-5-5-5-3-(3)-3-3-3-7----|
 |-(5)-5-5-5-1-(1)-1-1-1-3-|-(3)-3-3-3-3-(3)-3-3-3-5----|
 |-------------------------|-----------3-(3)-3-3-3------|
 PM-------------|

 


 E E E S S +E E E S S +E E E E E E E E


 

 
 |-----------------------|----------------------|
 |-----------------------|----------------------|
 |-----------------------|----------------------|
 |-7-7-7-7-3-(3)-3-3-3-5-|-(5)-5-5-5-5-5-5-5----|
 |-5-5-5-5-1-(1)-1-1-1-3-|-(3)-3-3-3-3-3-3-3----|
 |-----------------------|----------------------|

 


 


 W W W H E. E. E


 

 
 |----------|----------|----------|---------------|
 |----------|----------|----------|---------------|
 |----------|-5--------|----------|---------------|
 |-3--------|-5--------|-5--------|------0--2--3--|
 |-3--------|-3--------|-5--------|------0--2--3--|
 |-3--------|----------|-5--------|------0--2--3--|

 


 


 Q S S E S S E E E Q S S E S S E E E


 

 
 |--------------------|--------------------|
 |--------------------|--------------------|
 |--------------------|-5--5-5-5-5-5-5-5-5-|
 |-3--3-3-3-3-3-3-3-3-|-5--5-5-5-5-5-5-5-5-|
 |-3--3-3-3-3-3-3-3-3-|-3--3-3-3-3-3-3-3-3-|
 |-3--3-3-3-3-3-3-3-3-|--------------------|

 


 


 Q S S E S S E E E E E E E E E E E


 

 
 |--------------------|--------------------|
 |--------------------|--------------------|
 |--------------------|--------------------|
 |-5--5-5-5-5-5-5-5-5-|-5-5-5-5-5-5-5-5----|
 |-5--5-5-5-5-5-5-5-5-|-5-5-5-5-5-5-5-5----|
 |-5--5-5-5-5-5-5-5-5-|-5-5-5-5-5-5-5-5----|

 


 


 Q S S E S S E E E Q S S E S S E E E


 

 
 |--------------------|--------------------|
 |--------------------|--------------------|
 |--------------------|-5--5-5-5-5-5-5-5-5-|
 |-3--3-3-3-3-3-3-3-3-|-5--5-5-5-5-5-5-5-5-|
 |-3--3-3-3-3-3-3-3-3-|-3--3-3-3-3-3-3-3-3-|
 |-3--3-3-3-3-3-3-3-3-|--------------------|

 


 


 Q S S E S S E E E E E E E E E S S S S


 

 
 |--------------------|----------------------|
 |--------------------|----------------------|
 |--------------------|----------------------|
 |-5--5-5-5-5-5-5-5-5-|-5-5-5-5-5-5-x-x-x-x--|
 |-5--5-5-5-5-5-5-5-5-|-5-5-5-5-5-5-x-x-x-x--|
 |-5--5-5-5-5-5-5-5-5-|-5-5-5-5-5-5-x-x-x-x--|

 


 


 E E S S E S S E E E Q S S E S S E E E


 

 
 |---------------------|--------------------|
 |---------------------|--------------------|
 |---------------------|-5--5-5-5-5-5-5-5-5-|
 |-3-3-3-3-3-3-3-3-3-3-|-5--5-5-5-5-5-5-5-5-|
 |-3-3-3-3-3-3-3-3-3-3-|-3--3-3-3-3-3-3-3-3-|
 |-3-3-3-3-3-3-3-3-3-3-|--------------------|

 


 


 Q S S E S S E E E [2/4] S S S S S S S S


 

 
 |--------------------|-------------------|
 |--------------------|-------------------|
 |--------------------|-------------------|
 |-5--5-5-5-5-5-5-5-5-|-5-5-5-5-5-5-5-5---|
 |-5--5-5-5-5-5-5-5-5-|-5-5-5-5-5-5-5-5---|
 |-5--5-5-5-5-5-5-5-5-|-5-5-5-5-5-5-5-5---|

 


 


 [4/4] S E E. E S E E. E S E E. E S E. S S S S


 

 
 |-------------------|-----------------------|
 |-------------------|-----------------------|
 |-------------------|-----------------------|
 |-------------------|-----------------------|
 |-0-7-8--0-0-3-5--0-|-0-7-8--0-0-3--8-8-8-8-|
 |-0------0-0------0-|-0------0-0------------|

 


 


 S E E. E S E E. E S E. S S S S S S S S S S S S


 

 
 |-------------------|------------------------------|
 |-------------------|------------------------------|
 |-------------------|------------------------------|
 |-------------------|------------------------------|
 |-0-7-8--0-0-3-5--0-|-0-7--8-8-8-8-8-8-8-8-3-3-3-3-|
 |-0------0-0------0-|-0----------------------------|

 


 


 S E H +S Q +Q H. [2/4] S E E. E


 

 
 |-----------------|--------------|-------------|
 |-----------------|--------------|-------------|
 |--------------5--|-(5)----------|-------------|
 |-----3----(3)-5--|-(5)--5-------|-------------|
 |-0-7-3----(3)-3--|-(3)--5-------|-0-----------|
 |-0---3----(3)----|------5-------|-0-2-3--0----|

 


 


 [4/4] PM| PM PM| PM| PM PM|


 

 
 |-3-| |-3-| |-3-| |-3-|

 


 S S S S S S S S S S S E E. E S S S S S S S S S S S E E. E


 

 
 |------------------------------|---------------------------------|
 |------------------------------|---------------------------------|
 |------------------------------|---------------------------------|
 |-----------------------3-2----|---------------------------------|
 |-0-0-0-0---0-0-0-0---0------3-|-0-0-0-0---0-0-0-0---0-----------|
 |-0-0-0-0---0-0-0-0---0--------|-0-0-0-0---0-0-0-0---0-2-3--0----|

 


 


 PM| PM PM| PM| PM PM|


 

 
 |-3-| |-3-| |-3-| |-3-|

 


 S S S S S S S S S S S E E. E S S S S S S S S S S S E E. E


 

 
 |------------------------------|---------------------------------*|
 |------------------------------|---------------------------------*|
 |------------------------------|---------------------------------*|
 |-----------------------3-2----|-----------------------2-3--0----*|
 |-0-0-0-0---0-0-0-0---0------3-|-0-0-0-0---0-0-0-0---0-2-3--0----*|
 |-0-0-0-0---0-0-0-0---0--------|-0-0-0-0---0-0-0-0---0-2-3--0----*|
 --------------------------------------------------------------------------------

 


 


 Duration Legend


 

 
 ---------------
 W - whole; H - half; Q - quarter; E - 8th; S - 16th; T - 32nd; X - 64th; a - acciaccatura

 


 + - note tied to previous; . - note dotted; .. - note double dotted


 Uncapitalized letters represent notes that are staccato (1/2 duration)


 Irregular groupings are notated above the duration line


 Duration letters will always appear directly above the note/fret number it represents the


 duration for. Duration letters with no fret number below them represent rests. Multi-


 bar rests are notated in the form Wxn, where n is the number of bars to rest for. Low


 melody durations appear below the staff


 


 Tablature Legend


 

 
 ----------------

 


 h - hammer-on


 p - pull-off


 b - bend


 pb - pre-bend


 r - bend release (if no number after the r, then release immediately)


 /\ - slide into or out of (from/to "nowhere")


 s - legato slide


 S - shift slide


 - natural harmonic


 (n) - artificial harmonic


 n(n) - tapped harmonic


 ~ - vibrato


 tr - trill


 T - tap


 TP - trem. picking


 PM - palm muting


 \n/ - tremolo bar dip; n = amount to dip


 \n - tremolo bar down


 n/ - tremolo bar up


 /n\ - tremolo bar inverted dip


 = - hold bend; also acts as connecting device for hammers/pulls


 - volume swell (louder/softer)


 x - on rhythm slash represents muted slash


 o - on rhythm slash represents single note slash


 


 Misc Legend


 

 
 -----------

 


 | - bar


 || - double bar


 ||o - repeat start


 o|| - repeat end


 *| - double bar (ending)


 : - bar (freetime)


 $ - Segno


 & - Coda


 Tempo markers - = BPM(8/16=s8/s16), where s8 = swing 8ths, s16 = swing 16ths


 


 


 

 
 --------------------------------------------------------------------------------


Important: The song above is NOT stored on the Chordie server. The original song is hosted at www.guitartabs.cc. Chordie works as a search engine and provides on-the-fly formatting. Chordie does not index songs against artists'/composers' will. To remove this song please click here.

This song is displayed as text-only. Transposing and tuning is only available for chordpro-songs.
Rate #1 of 2 versions

Jango Player

Login - add to songbook

SHARE PAGE  



You need to log in to post comments