Guitar Tabs, Chords and Lyrics
Update 25:10. 13:00. Site is back up running again. Songbooks are recovered. Woring on getting search back up..


Put Me On  Styx

Key (if needed)
~ vibrato
. stop right after it makes a sound(listen to recording to understand what i mean)
Intro
 
 e|-----------------|-----------------|-----------------|-------------------|
 B|---------------|-----------------|-----------------|---------------------|
 G|-----------------|-----------------|-----------------|-------------------|
 D|-----------9-6---|-----------------|-----------9-6---|-------------------|
 A|-----7~--9~----5-|-----------------|-----7~--9~----5-|-5-7-5~------------|
 E|-7~--------------|-7~--------------|-7~--------------|-------------------|
 e|-----------------|-----------------|-----------------|-----------------|
 B|-----------------|-----------------|-----------------|-----------------|
 G|-----------------|-----------------|-----------------|-----------------|
 D|-----------9-6---|-----------------|-----------9-6---|-----------------|
 A|-----7~--9~----5-|-----------------|-----7~--9~----5-|-----------------|
 E|-7~--------------|-7~--------------|-7~--------------|-6~--------------|
 e|-----------------|-----------------|-----------------|-----------------|
 B|-----------------|-----------------|-----------------|-----------------|
 G|-----------------|-----------------|-----------------|-9---9---9---9---|
 D|-9.--------------|-9.--------------|-9.-9.-----------|-9-9-9-9-9-9-9-9-|
 A|-9.--------------|-9.--------------|-9.-9.-----------|-7-9-7-9-7-9-7-9-|
 E|-7.--------------|-7.--------------|-7.-7.-----------|---7---7---7---7-|
 e|-----------------|-----------------|-----------------|-----------------|
 B|-----------------|-----------------|-----------------|-----------------|
 G|-----------------|-----------------|-----------------|-----------------|
 D|-9~--------------|-----------------|-----------------|-----------------|
 A|-9~--------------|-----------------|-----------------|-----------------|
 E|-7~--------------|-----------------|-----------------|-----------------|

Verse 1 +[E] [B] [C#] [D] [D] [C#] [C#] [C#] [B]
Put me on I\'m your brand new record album
Side one, cut one listen to the songs
Play me loud don\'t you worry \'bout your nieghbors
Hope I make you feel good all day long
All day long
 
 e|-----------------|-----------------|
 B|-----------------|-----------------|
 G|-9-9-4-6-7-7-6-6-|-4---------------|
 D|-9-9-4-6-7-7-6-6-|-4---------542---|
 A|-7-7-2-4-5-5-4-4-|-2----24542---54-|
 E|-----------------|-----------------|
 e|-----------------|-----------------|-----------------|
 B|-----------------|-----------------|-----------------|
 G|-9-9-4-6-7-7-6-6-|-4------4--------|-4------4--------|
 D|-9-9-4-6-7-7-6-6-|-4------4--------|-4------4--------|
 A|-7-7-2-4-5-5-4-4-|-2------2--------|-2------2--------|
 E|-----------------|-----------------|-----------------|

Verse 2 (All powerChords, listen to the song for the strumming)
[E] [D] [D] [E] [D] [D] [E] [D] [D] [C] [D] 
[D](Put me on and play me loud,
Im a mad man screaming in your living room
I\'ll soon be coming to your town
To sing and play our little tune
 
 -----synthesizer-break------

I said put me on and play meloud
Turn your stereo up all the way
ALL THE WAY
Now your body\'s immersed in sound
So hear the synthesizers blare
Pre-Solo
 
 e|-----------------|-----------------|-----------------|
 B|-----------------|-----------------|-----------------|
 G|-----------------|-----------------|-----------------|
 D|-----------------|-----------------|-----------------|
 A|-0-2222-0-2222---|-2-4444-2-4444---|-4-5555-4-5555---|
 E|-----------------|-----------------|-----------------|
 e|-----------------|---2-3-5---------|
 B|-------------1-3-|-5---------------|
 G|---------2-4-----|-----------------|
 D|-0-2-4-5---------|-----------------|
 A|-----------------|-----------------|
 E|-----------------|-----------------|

Solo
too fast
Riff Over Solo
 
 e|----------------|--------------------|
 B|-----------------|-------------------|
 G|o---------------o|-------------------|
 D|o---------------o|-2-------2---------|
 A|-----------------|-----3-5---5-3-2---|
 E|-0---0-2-0-3-0-5-|-------------------|
 e|-----------------|-----------------|-----------------|-------------0~~-|
 B|-----------------|-----------------|-----------------|-------0-2-3-----|
 G|o---------------o|-----------------|-----------------|-1-2-3-----------|
 D|o---------------o|-2-----2-------2-|-----2-4---2-4-5-|-----------------|
 A|-----------------|---3-5---5-3-2---|-3-5-----5-------|-----------------|
 E|-0---0-2-0-3-0-5-|-----------------|-----------------|-----------------|

Relaxing Verse where Dennis sings
And no[E]w youre in the mood Let melody just drift your cares awa
 
 e|-4---------------|-2-------------0-|-0-----------0-0-|
 B|-5---------------|-3-------------2-|-0-----------0-2-|
 G|-4---------------|-2-------------2-|-1-----------0-2-|
 D|-6---------------|-0-------------2-|-2-----------0-2-|
 A|-----------------|---------------0-|-2-----------0-0-|
 E|-----------------|-----------------|-0---------------|

Its go[E]t to do you good as it mesmerizes you in its way
 
 e|-4---------------|-2-------------0-|-0-------------0----|
 B|-5---------------|-3-------------2-|-0-------------2----|
 G|-4---------------|-2-------------2-|-1-------------2----|
 D|4-6---------------|-0-------------2-|-2-------------2---|
 A|-----------------|---------------0-|-2-------------0----|
 E|-----------------|-----------------|-0------------------|

So drift away[Bm]..
 
 e|-2---------------|-4---------------|-2---------------|-4---------------|
 B|-3---------------|-5---------------|-3---------------|-5---------------|
 G|-4---------------|-6---------------|-4---------------|-6---------------|
 D|-4---------------|-6---------------|-4---------------|-6---------------|
 A|-2---------------|-4---------------|-2---------------|-4---------------|
 E|-----------------|-----------------|-----------------|-----------------|

Ah[E]hhhhhhhhhhhhhhhh, Ah[D]hhhhhhhhhhhhhh, Ah[C#m]hhhhhhhhhhhhhh, Ah[E]hhhhhhhhhhhhh
 
 e|-4---------------|-2---------------|-4---------------|-4---------------|
 B|-5---------------|-3---------------|-5---------------|-5---------------|
 G|o4---------------|-2---------------|-6---------------|-4--------------o|
 D|o6---------------|-0---------------|-6---------------|-6--------------o|
 A|-----------------|-----------------|-4---------------|-----------------|
 E|-----------------|-----------------|-----------------|-----------------|

Interlude
 
 e|-----------------|
 B|-----------------|
 G|o---------------o|
 D|o---------------o|
 A|-7--7--7--7775-5-|
 E|--77-77-77-------|

Intro once again
Ending with A scale going down the guitar fret (too lazy to tab so many
notes...)

Important: The song above is NOT stored on the Chordie server. The original song is hosted at www.guitartabs.cc. Chordie works as a search engine and provides on-the-fly formatting. Chordie does not index songs against artists'/composers' will. To remove this song please click here.

Text color:
Chord color:
Chord grids: 
Font size:    
Page size: 

B Bm C C# C#m D E
Rate #0 of 2 versions

Jango Player

Login - add to songbook

SHARE PAGE  



You need to log in to post comments