Guitar Tabs, Chords and Lyrics
Major upgrade!! After one year development the new version of Chordie is now online! Please give feedback.


Pain for Pleasure  Sum 41

All Killer No Filler
2001 Aquarius Records
Submitted by: paramore_fans@yahoo.com
In this song, Stevo sings metally while Deryck plays the drums
Dave sings in backup at chorus
Key: F#
Tuning: Standard EADGBe
Chords used:
Ebm - x68876
C# - x46664
B - x24442
Bb - x13331
Intro: Ebm x6, Ebm-C#-B-Bb x16
Dave:
[Ebm] [C#] [B] [Bb]  
 
 e|------------|------------|------------|-------------|
 B|------------|------------|------------|-------------|
 G|-8-8--------|-6-6--------|-4-4--------|-3-3---------|
 D|-8-8--4-3-1-|-6-6--4-3-1-|-4-4--4-3-1-|-3-3--4-3-1--|
 A|-6-6--------|-4-4--------|-2-2--------|-1-1---------|
 E|------------|------------|------------|-------------|

[Ebm] [C#] [B] [Bb]  
 
 e|------------|------------|------------|-----------------|
 B|------------|------------|------------|-----------------|
 G|-8-8--3-1---|-6-6--3-1---|-4-4--3-1---|-----------------|
 D|-8-8--4-3-4-|-6-6--4-3-4-|-4-4--4-3-4-|-3-4-3-4-6-4-3---|
 A|-6-6------6-|-4-4------6-|-2-2------6-|---------------4-|
 E|------------|------------|------------|-----------------|

( Tab from: http://www.guitartabs.cc/tabs/s/sum_41/pain_for_pleasure_crd.html )
[Ebm] [C#] [B] [Bb]  
 
 e|-6-4---6-4-|----6-4---6-4-|----6-4---6-4-|----6-4---6---6-|
 B|-----7-----|-6------7-----|-4------7-----|-3------7---7---|
 G|-----------|--------------|--------------|----------------|
 D|-----------|--------------|--------------|----------------|
 A|-----------|--------------|--------------|----------------|
 E|-----------|--------------|--------------|----------------|

Verse:
Stevo:
The [Ebm]seas have parted
The [C#]endings started
The s[B]ky has turned to [Bb]black
A [Ebm]killing spree through e[C#]ternity
The Devil s[B]tabs you in the [Bb]back
It's [Ebm]midnight now you
must es[C#]cape somehow
[B]Torture is his [Bb]leisure
Don't [Ebm]try to hide he'll
[C#]make you subside
As he [B]exchanges
pain for [Bb]pleasure
Chorus:
Stevo:
[Ebm]Pain for [C#]plea[Ebm]sure
Dave:
he's the [Ebm]hunter
you're the [B]game[C#]
Stevo:
[Ebm]Pain for [C#]plea[Ebm]sure
Dave:
Satan is his
[B] [C#] [B] [C#] [B] [C#] [B]  
[Ebm]name!
Watch out[Ebm] [C#] [Ebm]

Important: The song above is NOT stored on the Chordie server. The original song is hosted at www.guitartabs.cc. Chordie works as a search engine and provides on-the-fly formatting. Chordie does not index songs against artists'/composers' will. To remove this song please click here.

Text color:
Chord color:
Chord grids: 
Font size:    
Page size: 

B Bb C# Ebm
Rate #1 of 6 versions

Login - add to songbook

SHARE PAGE  



You need to log in to post comments