Guitar Tabs, Chords and Lyrics
Server problems seems to be fixed. Chordie has been experiencing problems with songs disappearing. These issues now seems to be fixed, but still verifying the fix. If you find anything strange, please email admin@chordie.com.


A Fool's Paradise  Symphony X

A FOOL'S PARADISE
As recorded by Symphony X
(From the 2000 Album V)
Transcribed by Linus "Mr.Gul" Abrahamson
Words by Allen, Pinnella Music by Romeo, Pinnella
[C5]x 3 5 x x x
[Bb5]6 8 x x x x
[Gb5]2 4 x x x x
[Ab5]4 6 x x x x
[C#5]x 4 6 x x x
Gtr I (D G C F A D) - 'Rhythm'
Gtr II (D G C F A D) - 'Lead'
Intro
Q=140
[F5] [E5] [F5] [E5]  
[4/4] Gtr I
 
 PM----| PM----|
 |----6-----|

W S S S S S S S S S S S S S S S S S S
 
 |----------||------------------------------------------|
 |----------||o-----------------------------------------|
 |----------||----------------------------10p9p7--------|
 |----------||--10S9---------10S9----------------10p9p7-|
 |----------||o--8S7-7-7-7-7--8S7-7-7-7-7---------------|
 |----------||------------------------------------------|

[F5] [E5] [F5] [E5] [F5] [F5] [E5] [F5] [E5] 
[4/4] Gtr I
 
 PM----| PM----| PM----| PM----|
 |----6-----|

S S S S S S S S S S S S Q S S S S S S S S S S S S S S S S S S
 
 |-------------------------------|------------------------------------------|
 |-------------------------------|------------------------------------------|
 |-------------------------------|---------------------------10p9p7---------|
 |-10S9---------10S9---------10--|-10S9---------10S9----------------10p9p7--|
 |--8S7-7-7-7-7--8S7-7-7-7-7--8--|--8S7-7-7-7-7--8S7-7-7-7-7----------------|
 |-------------------------------|------------------------------------------|

PM----| PM| PM|
 
 |-3-| |----6-----| |-3-|

S S S S S S S S S S S S S S S S S S S S
 
 |----------------------------------------------||-|
 |---------------------------------------------o||-|
 |---------10p9p7-----10p9p7-10p9p7-----10p9p7--||-|
 |----------------------------------------------||-|
 |-7-7-7-7--------7-7---------------7-7--------o||-|
 |----------------------------------------------||-|

PM| PM|
 
 |-3-| |-3-| |----6----| |----6----|

S S S S S S S S S S S S S S S S S S S S S S
 
 |-----------------------------------------------||
 |-----------------------------------------------||
 |-----------------------------------------------||
 |-----10p9p7-10p9p7-----9p7p6-------------------||
 |-7-7---------------7-7-------8p7p5-8p7p5-------||
 |-----------------------------------------8p7p5-||

Verse
[(C#m)]  
 
 PM----| PM------------| PM----| PM------------|

S S S S S S S S S S S S S S S S S S S S S S S S S S S S S S S S
 
 ||----------------------------------|---------------------------------|
 ||o---------------------------------|---------------------------------|
 ||----------------------------------|---------------------------------|
 ||----------------------------------|---------------------------------|
 ||o-7p4-4-4-4-4-7p4-4-4-4-4-4-4-4-4-|-7p4-4-4-4-4-7p4-4-4-4-4-4-4-4-4-|
 ||----------------------------------|---------------------------------|

1. 2.
[B5] [B5] [A5]  
 
 PM----| PM------------| ~

S S S S S S S S S S S S S S S S H. Q H H
 
 |---------------------------------|-------------||-|-----------|
 |---------------------------------|------------o||-|-----------|
 |---------------------------------|-------------||-|-----------|
 |---------------------------------|-4-----------||-|-4----2----|
 |-7p4-4-4-4-4-7p4-4-4-4-4-4-4-4-4-|-2-------3--o||-|-2----0----|
 |---------------------------------|-------------||-|-----------|

$
 
 PM----| PM------------| PM----| PM------------|

S S S S S S S S S S S S S S S S S S S S S S S S S S S S S S S S
 
 ||----------------------------------|---------------------------------|
 ||o---------------------------------|---------------------------------|
 ||----------------------------------|---------------------------------|
 ||----------------------------------|---------------------------------|
 ||o-7p4-4-4-4-4-7p4-4-4-4-4-4-4-4-4-|-7p4-4-4-4-4-7p4-4-4-4-4-4-4-4-4-|
 ||----------------------------------|---------------------------------|

1.
[B5]  
 
 PM----| PM------------| ~

S S S S S S S S S S S S S S S S H. Q
 
 |---------------------------------|-------------||
 |---------------------------------|------------o||
 |---------------------------------|-------------||
 |---------------------------------|-4-----------||
 |-7p4-4-4-4-4-7p4-4-4-4-4-4-4-4-4-|-2-------3--o||
 |---------------------------------|-------------||

2.
 
 PM----| PM----|

S S S S S S S S S S S S E E E. S +E E E. S +E E E. S +E E E. S +E E
 
 |-----------------------------|-----------------------|-----------------------||
 |-----------------------------|-----------------------|-----------------------||
 |-----------------------------|-----------------------|-----------------------||
 |-----------------------------|-----------------------|-----------------------||
 |-7p4-4-4-4-4-7p4-4-4-4-4-4-6-|-7--6-(6)-4-3----------|----------4-7--6-(6)-4-||
 |-----------------------------|---------------5-(5)-4-|-3--6-(6)--------------||

Pre-Chorus
 
 PM| PM--------| PM PM| PM--------| ~

S S S S S S S S S S S S S S S S S S S S S S S S S S S S Q
 
 ||----------------------------------|----------------------------|
 ||o---------------------------------|----------------------------|
 ||----------------------------------|----------------------------|
 ||----------------------------------|----------------------------|
 ||o-6-4-3---4-3-------------4---4-3-|-6-4-3---4-3----------------|
 ||--------5-----5-4---2-4-5---5-----|-------5-----5-4---2-4-2-5--|
 PM PM--------| PM

S S S S S S S S S S S S S S S S S S S S S S S S S S S S S S S S
 
 |---------------------------------|-----------------------------------||
 |---------------------------------|----------------------------------o||
 |---------------------------------|-----------------------------------||
 |---------------------------------|-------------4---6-4-7-6-4---------||
 |-6-4-3---4-3-------------4---4-3-|-4-3-6-4-7-6---7-----------7-6-4--o||
 |-------5-----5-4---2-4-5---5-----|-----------------------------------||

~~ ~[G#5] [A#5]
H. E E H H W W
 
 |-------------|-----------|----------|------||
 |-------------|-----------|----------|------||
 |-------------|-----------|----------|------||
 |-4-----------|-----------|----------|------||
 |---------7-6-|-4---------|-6--------|-8----||
 |-------------|------5----|-4--------|-6----||

Chorus
$$
PM----------------------------------------------------------|
E S S S S S S S S S S S S S S S S S S S S S S S S S S S S S S
||--------------------------------|----------------------------------|
||o-------------------------------|----------------------------------|
||--------------------------------|----------------------------------|
||--5-----------------------------|---------3-----------3-6-5-3------|
||o-3-3-3-3-3-3-3-3-3-3-3-3-3-3-3-|-2-5-2-5---5-3-5-2-5---------6-5--|
||--------------------------------|----------------------------------|
PM----------------------------------------------------------|
E S S S S S S S S S S S S S S S S S S S S S S S S S S S S S S
|-------------------------------|---------------------------------|
|-------------------------------|---------------------------------|
|-------------------------------|---------------------------------|
|-5-----------------------------|---------3-----------3-6-5-3-----|
|-3-3-3-3-3-3-3-3-3-3-3-3-3-3-3-|-2-5-2-5---5-3-5-2-5---------6-5-|
|-------------------------------|---------------------------------|
PM------------------------| PM------------------------|
E S S S S S S S S S S S S S S E S S S S S S S S S S S S S S
|-------------------------------|-------------------------------|
|-------------------------------|-------------------------------|
|-------------------------------|-------------------------------|
|-5-----------------------------|-3-----------------------------|
|-3-3-3-3-3-3-3-3-3-3-3-3-3-3-3-|-1-1-1-1-1-1-1-1-1-1-1-1-1-1-1-|
|-------------------------------|-------------------------------|
1.
PM----------------------------------------------------------|
E S S S S S S S S S S S S S S S S S S S S S S S S S S S S S S
|-------------------------------|----------------------------------||
|-------------------------------|---------------------------------o||
|-------------------------------|----------------------------------||
|-3-----------------------------|----------------------------------||
|-0-0-0-0-0-0-0-0-0-0-0-0-0-0-0-|-------1-3-1-----1---------------o||
|-------------------------------|-1-3-4-------4-3---4-3-1-4-3-1-3--||
2.
To Coda
To Coda
PM--------------------------------------------------| ~
E S S S S S S S S S S S S S S S S S S S S S S S S S S Q
|-------------------------------|-----------------------------||
|-------------------------------|-----------------------------||
|-------------------------------|-----------------------------||
|-3-----------------------------|-----------------------------||
|-0-0-0-0-0-0-0-0-0-0-0-0-0-0-0-|-------1-3-1-----1-----------||
|-------------------------------|-1-3-4-------4-3---4-3-1-3---||
Riff
PM----| PM----| PM----| PM----|
|----6----|
S S S S S S S S S S S S S S S S S S S S S S S S S S S S S S Q
|-------------------------------------|-----------------------------|
|-------------------------------------|-----------------------------|
|-------------------------------------|-----------------------------|
|-------------------------7p6p4-------|-----------------------------|
|-7S6---------7S6---------------7p6p4-|-7S6---------7S6---------7---|
|-5S4-4-4-4-4-5S4-4-4-4-4-------------|-5S4-4-4-4-4-5S4-4-4-4-4-5---|
PM----| PM----|
|----6----|
S S S S S S S S S S S S S S S S S S
|-------------------------------------|
|-------------------------------------|
|-------------------------------------|
|-------------------------7p6p4-------|
|-7S6---------7S6---------------7p6p4-|
|-5S4-4-4-4-4-5S4-4-4-4-4-------------|
D.S. al Coda
PM----| PM| PM|
|-3-| |----6----| |----6----|
S S S S S S S S S S S S S S S S S S S S S
|-------------------------------------------||
|-------------------------------------------||
|-------------------------------------------||
|---------7p6p4-----7p6p4-------------------||
|-------------------------7p6p4-7p6p4-------||
|-4-4-4-4-------4-4-------------------8p5p4-||
Interlude
&
W +W W +W
|----------|------------|----------|------------|
|----------|------------|----------|------------|
|-2--------|-(2)--------|-2--------|-(2)--------|
|-2--------|-(2)--------|-2--------|-(2)--------|
|-0--------|-(0)--------|-0--------|-(0)--------|
|----------|------------|----------|------------|
W +W W W W
|----------|------------|----------|----------|------||
|----------|------------|----------|-3--------|-2----||
|----------|------------|----------|-2--------|-2----||
|-2--------|-(2)--------|-2--------|-2--------|-2----||
|-2--------|-(2)--------|-2--------|-0--------|-0----||
|-0--------|-(0)--------|-0--------|----------|------||
Guitar Solo
Gtr II
PM----| PM--| PM PM PM PM PM PM------------|
S e S S S S S S S S S S S S S S S S S S S S S S S S S S S S S
|----------------------------------|---------------------------------|
|----------------------------------|---------------------------------|
|-----------------6---6-\5---5h6---|-6p5---5h6p5---5-------6-8-9-----|
|-6-8---8---6-7-8---8------8-----8-|-----8-------8---8-6-8-------6-7-|
|----------------------------------|---------------------------------|
|----------------------------------|---------------------------------|
|
| Gtr I
| PM----| PM-------------| PM----| PM------------|
| E S S S S E S S S S S S S S E S S S S E S S S S S S S S
|----------------------------------|---------------------------------|
|----------------------------------|---------------------------------|
|----------------------------------|---------------------------------|
|----------------------------------|---------------------------------|
|-8-----------8--------------------|-8-----------8-------------------|
|-6---6-6-6-6-6---6-6-6--6-6-6-6-6-|-6---6-6-6-6-6---6-6-6-6-6-6-6-6-|
PM----| T
|-----6-----| |------6------| |--------7---------|
S S S S S S S S S S S S S S S S S S S S S S S
|--------------------------------------------------------------|
|--------------------------------------------------------------|
|--------------------------------------------------------------|
|-8------------------------------------------------------------|
|---4-6-7-6h7p==6p4--------------6h8h==9h13p9p==8p6s==8h9h==11-|
|-------------------6p4-/6h8h==9-------------------------------|
|
| PM------| PM-------------------------------|
| E S S S S E S S S S S S S S
|--------------------------------------------------------------|
|--------------------------------------------------------------|
|--------------------------------------------------------------|
|--------------------------------------------------------------|
|-8---------------8--------------------------------------------|
|-6---6-6-6---6---6------6---6---6---6----6---6-----6-----6----|
T T T
|------6------| |-------7--------| |------6-------|
S S S S S S S S S S S S S S S S S S S T T T T T T T T
|----------------------------------------------11h13h14h16p14p13p11h18p16-14-16----|
|-------------------------------------11h13h14-------------------------------------|
|---------8h10h11h15p11p10p8s10h11h13----------------------------------------------|
|-8h10h11--------------------------------------------------------------------------|
|----------------------------------------------------------------------------------|
|----------------------------------------------------------------------------------|
|
| H H
|----------------------------------------------------------------------------------|
|----------------------------------------------------------------------------------|
|----------------------------------------------------------------------------------|
|----------------------------------------------------------------------------------|
|-4------------------------------------6-------------------------------------------|
|-2------------------------------------4-------------------------------------------|
~~~ PM------------------|
|--3--|
Q. S S S S S S S S S S S
|----------------------------------------------|
|----------------------------------------------|
|-15----------13h15p13-------------------------|
|----------------------16-15-13----------------|
|-------------------------------16-13-15-16-13-|
|----------------------------------------------|
|
| PM----| PM------------------|
| E S S S S E S S S S S S S S
|----------------------------------------------|
|----------------------------------------------|
|----------------------------------------------|
|----------------------------------------------|
|--8-----------8-------------------------------|
|--6--6-6-6-6--6--------6--6--6--6--6--6--6--6-|
S S S S S S S S S S S S S S S S
|----------------------------------------18----18s=|
|----------------------14----14-18-14-18----18-----|
|-------------15----15----15-----------------------|
|----15----15----15--------------------------------|
|-16----16-----------------------------------------|
|--------------------------------------------------|
|
| PM------| PM------------------|
| E S S S S E S S S S S S S S
|--------------------------------------------------|
|--------------------------------------------------|
|--------------------------------------------------|
|--------------------------------------------------|
|--8-----------------8-----------------------------|
|--6-----6--6--6--6--6-----6--6--6--6--6--6--6--6--|
~~~~ ~~~~~~~~~
S S S S H S S E
|-21p18p16h18-[18]----------------16----------|
|------------------------------18----18b21====|
|---------------------------------------------|
|---------------------------------------------|
|---------------------------------------------|
|---------------------------------------------|
|
| PM--------| PM-------------------|
| E S S S S E S S S S S S S S
|---------------------------------------------|
|---------------------------------------------|
|---------------------------------------------|
|---------------------------------------------|
|--8-----------------8------------------------|
|--6-----6--6---6--6-6-6-6-6-6--6--6--6-----6-|
\1.5
~~~~~~~ ~~~
|--3--|
+E S S S S S S S Q. +E
|-----------------------------------------||
|-(18)r-18p17p16-------16-16--------------||
|----------------18-15-------18----(18)---||
|-----------------------------------------||
|-----------------------------------------||
|-----------------------------------------||
|
| H H
|-----------------------------------------||
|-----------------------------------------||
|-----------------------------------------||
|---6-------------------------------------||
|---4-------------------------6-----------||
|-----------------------------4-----------||
Keyboard Solo
Gtr I
PM----| PM------------| PM----| PM------------|
E S S S S E S S S S S S S S E S S S S E S S S S S S S S
||------------------------------|------------------------------|
||o-----------------------------|------------------------------|
||------------------------------|------------------------------|
||--6---------6-----------------|-6---------6------------------|
||o-4-4-4-4-4-4-4-4-4-4-4-4-4-4-|-4-4-4-4-4-4-4-4-4-4-4-4-4-4--|
||------------------------------|------------------------------|
1.
PM----| PM------------|
E S S S S E S S S S S S S S H H
|-----------------------------|------------||
|-----------------------------|-----------o||
|-----------------------------|------------||
|-6---------6-----------------|-2----4-----||
|-4-4-4-4-4-4-4-4-4-4-4-4-4-4-|-0----2----o||
|-----------------------------|------------||
2.
PM----| PM----|
E S S S S E S S S S E E E. S +E E E. S +E E E. S +E E E. S +E E
|-------------------------|-----------------------|-----------------------||
|-------------------------|-----------------------|-----------------------||
|-------------------------|-----------------------|-----------------------||
|-6---------6-------------|-----------------------|-----------------------||
|-4-4-4-4-4-4-4-4-4-4-4-6-|-7--6-(6)-4-3----------|----------4-7--6-(6)-4-||
|-------------------------|---------------5-(5)-4-|-3--6-(6)--------------||
Classical
Gtr I
W
|
/
Gtr II
S S S S S S S S S S S S S S S S
|----------13-15----------------------------------|
|-13-15-16-------15-16-13-15-12-13----------------|
|----------------------------------12-13-10-12----|
|----------------------------------------------13-|
|-------------------------------------------------|
|-------------------------------------------------|
+W
|
/
S S S S S S S S S S S S S S S S
|----------------------------------------------|
|----------------------------------------------|
|-10-------------------------------------------|
|----12-13-10-12-9-10-12-10-9------------------|
|-----------------------------11-10-8----------|
|-------------------------------------11-10-7--|
S S S S S S S S S S S S S S S S S S S S S S S S S S S S S S S S
|-----------------------------------|-------------------------------------|
|-----------------------------------|-------------------------------------|
|---------------------6-7-9-7-6-----|-10-7-6-7---7------------------------|
|-----------------7-8-----------8-7-|----------7-----7----------------7-9-|
|----------6-8-10-------------------|--------------8-----------7-8-10-----|
|-8-7-8-10--------------------------|------------------10-9-10------------|
S S S S S S S S S S S S S S S S S S S S S S S S S S S S S S S S
|-------------------------------------|----------------------------------------|
|--------------------8----------------|----------------------9-10-12-10-9------|
|----8-9-11-9-8--------9-8-9---9------|---------------7-9-10--------------10-9-|
|-10------------10-9---------9------9-|--------7-9-10--------------------------|
|--------------------------------10---|-7-9-10---------------------------------|
|-------------------------------------|----------------------------------------|
S S S S S S S S S S S S S S S S
|-------------------------------------------------|
|-13-10-12-13-12-10-------15-12-13-15-13-12-------|
|-------------------13-11-------------------14-12-|
|-------------------------------------------------|
|-------------------------------------------------|
|-------------------------------------------------|
S S S S S S S S S S S S S S S S
|-------------------------------------------------|
|-17-13-15-17-15-13-------19-16-17-19-17-16-------|
|-------------------16-14-------------------18-16-|
|-------------------------------------------------|
|-------------------------------------------------|
|-------------------------------------------------|
S S S S S S S S S S S S S S S S
|-------------------------------------------------|
|-20-17-16-17----17----17----17-19-20-19-17-------|
|-------------17----16----------------------19-18-|
|-------------------------19----------------------|
|-------------------------------------------------|
|-------------------------------------------------|
S S S S S S S S S S S S S S S S
|-------------------------------------------------|
|-19-15----15----15----15----15-17-18-17-15-------|
|-------17----16----------------------------17-16-|
|-------------------19----17----------------------|
|-------------------------------------------------|
|-------------------------------------------------|
S S S S S S S S S S S S S S S S
|-------------------------------------------------|
|-17----------------------------------------------|
|----17-16-17-14-17----17-11-14-12-14-11-14----14-|
|-------------------17----------------------14----|
|-------------------------------------------------|
|-------------------------------------------------|
S S S S S S S S S S S S S S S S
|-------------------------------------------------|
|-------------------------------------------------|
|----14----14----14----14----14----14-11-14----14-|
|-13----14----13----11----------13----------13----|
|-------------------------14----------------------|
|-------------------------------------------------|
PM-----------------------------------------------------|
|-------------------|------------------|-------------------|
|-------------------|------------------|-------------------|
|-9-9-8-9-11-9-8-11-|-9-9-8-9-10-9-8-8-|-9-9-8-9-11-9-11-8-|
|-------------------|------------------|-------------------|
|-------------------|------------------|-------------------|
|-------------------|------------------|-------------------|
PM------------------------------------------------------------|
|-------------------|----------------------|----------------------|
|-------------------|------10--------------|------10--------------|
|-9-9-8-9-11-9-11-8-|-9-12----11-12-9-11-8-|-9-12----11-12------8-|
|-------------------|----------------------|---------------9-11---|
|-------------------|----------------------|----------------------|
|-------------------|----------------------|----------------------|
PM-------| PM-----------------------------------|
S S S S e E S S S S e E S S S S e E S S S S e E
|---------------------------|---------------------------|
|---------------------------|---------------------------|
|--------6-9----------6-9---|--------8-9----------8-9---|
|---------------------------|----7-9----------7-9-------|
|-7-9-10-------7-9-10-------|-10-----------10-----------|
|---------------------------|---------------------------|
PM--------------------------------------------------|
S S S S e E S S S S e E S S S S e E S S S S e E
|---------------------------|-----------------------------|
|---------------------------|-----------------------------|
|--------8-9----------8-9---|-----------9-------------9---|
|------7------------7-------|---------9-------------9-----|
|-9-10---------9-10---------|-10-9-10-------10-9-10-------|
|---------------------------|-----------------------------|
Bb°7
T T T T T T T T
|------6------| |------6------| |------6------| |------6------|
S S S S S S S S S S S S S S S S S S S S S S S S
|-------------------------------------------------------------------|
|---------8h11h14p11h14p11p8---------------8h11h14p11h14p11p8-------|
|-------------------------------------------------------------------|
|-8h11h14--------------------14p11-8h11h14--------------------13p10-|
|-------------------------------------------------------------------|
|-------------------------------------------------------------------|
A°7
T T T T T T T T
|------6------| |------6------| |------6------| |-----6------|
S S S S S S S S S S S S S S S S S S S S S S S S
|------------------------------------------------------------------|
|---------7h10h13p10h13p10p7---------------7h10h13p10h13p10p7------|
|------------------------------------------------------------------|
|-7h10h13--------------------13p10-7h10h13--------------------12p9-|
|------------------------------------------------------------------|
|------------------------------------------------------------------|
Ab°7 G°7
T T T T T T T T
|-----6-----| |-----6-----| |-----6-----| |-----6------|
S S S S S S S S S S S S S S S S S S S S S S S S
|----------------------------------------------------------|
|--------6h9h12p9h12p9p6-------------5h8h11p8h11p8p5-------|
|----------------------------------------------------------|
|-6h9h12-----------------11p8-5h8h11-----------------16p13-|
|----------------------------------------------------------|
|----------------------------------------------------------|
C°7 Em7
T T T T T T T T
|------6-------| |------6-------| |------6-------| |------6-------|
S S S S S S S S S S S S S S S S S S S S S S S S
|-------------------------------------------------------------------------|
|----------10h13h16p13h16p13p10----------------12h15h17p15h17p15p12-------|
|-------------------------------------------------------------------------|
|-10h13h16----------------------17p14-12h14h17----------------------14p11-|
|-------------------------------------------------------------------------|
|-------------------------------------------------------------------------|
Bb°7 Db°7
T T T T T T T T
|------6------| |------6------| |------6-------| |------6------|
S S S S S S S S S S S S S S S S S S S S S S S S
|---------------------------------------------------------------------|
|---------8h11h14p11h14p11p8----------------11h14h17p14h17p14p11------|
|---------------------------------------------------------------------|
|-8h11h14--------------------17p14-11h14h17----------------------14p9-|
|---------------------------------------------------------------------|
|---------------------------------------------------------------------|
T T T T T T T T
|-----6------| |-----6------| |-----6------| |-----6------|
S S S S S S S S S S S S S S S S S S S S S S S S
|---------------------------------------------------------------|
|--------7h10h12p10h12p10p7-------------7h10h12p10h12p10p7------|
|---------------------------------------------------------------|
|-7h9h14--------------------14p9-7h9h14--------------------13p9-|
|---------------------------------------------------------------|
|---------------------------------------------------------------|
T T T T T T T T
|-----6------| |-----6------| |-----6------| |-----6------|
S S S S S S S S S S S S S S S S S S S S S S S S
|---------------------------------------------------------------||
|--------7h10h12p10h12p10p7-------------7h10h12p10h12p10p7------||
|---------------------------------------------------------------||
|-7h9h13--------------------13p9-7h9h13--------------------13p9-||
|---------------------------------------------------------------||
|---------------------------------------------------------------||
Bridge
N.C.
Gtr II
>
~~~~~~~~~~~~~~~~~~~~~~~~~~~~~~
W +W
|-------------------------|-------------------------------|
|-------------------------|-------------------------------|
|-8-----------------------|-(8)---------------------------|
|-------------------------|-------------------------------|
|-------------------------|-------------------------------|
|-------------------------|-------------------------------|
|
| Gtr I
| PM--------------| PM--------------------------------|
| S S e E S S S S e E S S S S e E S S S S S S S S S S
|-------------------------|-------------------------------|
|-------------------------|-------------------------------|
|-------------------------|-------------------------------|
|-------------------------|-------------------6-9-8-6-----|
|-6-6-6---6-6-6-6-6---6-6-|--6--6-6---6-6-5-8---------9-8-|
|-------------------------|-------------------------------|
Gtr I
PM--------------| PM------------------------------|
S S e E S S S S e E S S S S e E S S S S S S S S S S
|-------------------------|-----------------------------|
|-------------------------|-----------------------------|
|-------------------------|-----------------------------|
|-------------------------|-----------------6-9-8-6-----|
|-6-6-6---6-6-6-6-6---6-6-|-6-6-6---6-6-5-8---------9-8-|
|-------------------------|-----------------------------|
PM--------------| PM--------------------| PM|
S S e E S S S S e E S S S S e E S S S S e E S S
|-------------------------|-------------------------|
|-------------------------|-------------------------|
|-------------------------|-------------------------|
|-------------------------|-------------------------|
|-6-6-6---6-6-6-6-6---6-6-|-4-4-4---4-4-4-4-4---4-4-|
|-------------------------|-------------------------|
D.S.S. al Dbl. Coda
PM--------------| PM|
S S e E S S S S e E S S H H
|-------------------------|-----------||
|-------------------------|-----------||
|-------------------------|-----------||
|-------------------------|-----------||
|-3-3-3---3-3-3-3-3---3-3-|-6----8----||
|-------------------------|-4----6----||
Outro
&&
PM----| PM----| PM----| PM----|
|----6-----|
S S S S S S S S S S S S S S S S S S S S S S S S S S S S S S Q
||------------------------------------------|--------------------------------|
||o-----------------------------------------|--------------------------------|
||----------------------------10p9p7--------|--------------------------------|
||--10S9---------10S9----------------10p9p7-|-10S9---------10S9---------10---|
||o--8S7-7-7-7-7--8S7-7-7-7-7---------------|--8S7-7-7-7-7--8S7-7-7-7-7--8---|
||------------------------------------------|--------------------------------|
PM----| PM----|
|----6-----|
S S S S S S S S S S S S S S S S S S
|-----------------------------------------|
|-----------------------------------------|
|---------------------------10p9p7--------|
|-10S9---------10S9----------------10p9p7-|
|--8S7-7-7-7-7--8S7-7-7-7-7---------------|
|-----------------------------------------|
PM----| PM| PM|
|-3-| |----6-----| |-3-|
S S S S S S S S S S S S S S S S S S S S 4x
|----------------------------------------------||
|---------------------------------------------o||
|---------10p9p7-----10p9p7-10p9p7-----10p9p7--||
|----------------------------------------------||
|-7-7-7-7--------7-7---------------7-7--------o||
|----------------------------------------------||
Duration Legend
---------------
W - whole; H - half; Q - quarter; E - 8th; S - 16th; T - 32nd; X - 64th; a - acciaccatura
+ - note tied to previous; . - note dotted; .. - note double dotted
Uncapitalized letters represent notes that are staccato (1/2 duration)
Irregular groupings are notated above the duration line
Duration letters will always appear directly above the note/fret number it represents the
duration for. Duration letters with no fret number below them represent rests. Multi-
bar rests are notated in the form Wxn, where n is the number of bars to rest for. Low
melody durations appear below the staff
Tablature Legend
----------------
h - hammer-on
p - pull-off
b - bend
pb - pre-bend
r - bend release (if no number after the r, then release immediately)
/\ - slide into or out of (from/to "nowhere")
s - legato slide
S - shift slide
- natural harmonic
[n] - artificial harmonic
n(n) - tapped harmonic
~ - vibrato
tr - trill
T - tap
TP - trem. picking
PM - palm muting
\n/ - tremolo bar dip; n = amount to dip
\n - tremolo bar down
n/ - tremolo bar up
/n\ - tremolo bar inverted dip
= - hold bend; also acts as connecting device for hammers/pulls
- volume swell (louder/softer)
x - on rhythm slash represents muted slash
o - on rhythm slash represents single note slash
Misc Legend
-----------
| - bar
|| - double bar
||o - repeat start
o|| - repeat end
*| - double bar (ending)
: - bar (freetime)
$ - Segno
& - Coda
Tempo markers - = BPM(8/16=s8/s16), where s8 = swing 8ths, s16 = swing 16ths

Important: The song above is NOT stored on the Chordie server. The original song is hosted at www.guitartabs.cc. Chordie works as a search engine and provides on-the-fly formatting. Chordie does not index songs against artists'/composers' will. To remove this song please click here.

Text color:
Chord color:
Chord grids: 
Font size:    
Page size: 

A#5 A5 Ab5 B5 Bb5 C#5 C5 E5 F5 G#5 Gb5
Rate #1 of 2 versions

Login - add to songbook

SHARE PAGE  



You need to log in to post comments