Guitar Tabs, Chords and Lyrics
Major upgrade!! After one year development the new version of Chordie is now online! Please give feedback.


Absence of Light   Symphony X

 
 |------------------------------|-------------------------------|
 |------------------------------|-------------------------------|
 |----------------------------6-|-(6)-------------8-7---7-6-----|
 |----5-5-5-5-5-5-5-5-5-5-7-8---|-----5-5-5-5-5-5-----5-----4-5-|

 


 


 E S S E S S E S S S S S S +E E +S E. Q S S S S


 

 
 |---------------------------|-------------------------|
 |---------------------------|-------------------------|
 |-------------------------6-|-(6)-8-(8)-7-------------|
 |-5-5-5-5-5-5-5-5-5-5-7-8---|--------------8--4-4-4-5-|

 


 


 +E S S E S S E S S S S S S +E S S E S S S S S S S S S S


 

 
 |-----------------------------|-------------------------------|
 |-----------------------------|-------------------------------|
 |---------------------------6-|-(6)-------------8-7---7-6-----|
 |-(5)-5-5-5-5-5-5-5-5-5-7-8---|-----5-5-5-5-5-5-----5-----4-5-|

 


 


 +E S S E S S E S S S S S S +E E +S E. Q S S S S


 

 
 |-----------------------------|-------------------------||
 |-----------------------------|-------------------------||
 |---------------------------6-|-(6)-8-(8)-7-------------||
 |-(5)-5-5-5-5-5-5-5-5-5-7-8---|--------------8--4-4-4-4-||

 


 


 Keyboard Solo 1


 S E S E S S +S S S S S S S S S E S E S S +S S S S S S E 4x


 

 
 ||--------------------------------|-------------------------------||
 ||o-------------------------------|------------------------------o||
 ||o-------------------------------|---------------------------3--o||
 ||--3-2-3-2-3-2-(2)-0-2h3-0-0-2h3-|-3-2-3-2-3-2-(2)-0-2h3-0-0-----||

 


 


 Guitar Solo 1


 7/8 4/4


 E. E. e E S S S S E. S +E e E S S S S S S 4x


 

 
 ||--------------------|---------------------------||
 ||o---------------1---|------------------1-------o||
 ||o-2--0--2-2-3-0---0-|-2--0-(0)-2-2-3-0---0-3-0-o||
 ||--------------------|---------------------------||

 


 


 Break


 9/8


 E. S +E E H S E. E. E E S S E S S S


 

 
 ||------------------|--------------------------||
 ||o-----------------|-------------------------o||
 ||o-----------------|-------------------------o||
 ||--2--0-(0)-2------|---2--0--2-2-2-0-2-3-2-0--||

 


 


 $


 7/8


 S E S E S S +S S S S S S S E S E S S +S S S S S S


 

 
 ||----------------------------|---------------------------|
 ||o---------------------------|---------------------------|
 ||o-------------------------1-|-------------------------1-|
 ||--3-2-3-2-3-2-(2)-3-2-0-3---|-3-2-3-2-3-2-(2)-3-2-0-3---|

 


 


 S E S E S S +S S S S S S


 

 
 |---------------------------|
 |---------------------------|
 |-------------------------1-|
 |-3-2-3-2-3-2-(2)-3-2-0-2---|

 


 


 5/8


 |-3-|


 S E S E S S S S S S S S S S S S S S S S S S S


 

 
 |----------------------------||-|----------------------||
 |---------2h4p2-------------o||-|----------------------||
 |---------------5-4-2-1-2-4-o||-|-2-1------------------||
 |-3-2-3-2--------------------||-|-----3-2-0-5-3-0-7-5--||

 


 


 Verse


 [4/4] S S S S S S S S S S S S S S S S S S S S S S S S S S S S S S S S


 

 
 ||----------------------------------|-----------------------------------|
 ||o---------------------------------|-----------------------------------|
 ||o-7-5---------------------7---7---|-7-5---------------------5---5\-4--|
 ||------0-0---0---0---0-5-7---7---7-|-----0-0---0-3-0---0-5-7---7-------|

 


 


 E S S S e S S S S S S S S S S S S S S S S S S S S S S S S S


 

 
 |-----------------------------|----------------------------------||
 |-----------------------------|---------------------------------o||
 |---------------------7---7---|-7-5---7-5-----------------------o||
 |---0-0-6-0-0---0-5-7---7---7-|-----7-----6-5-0-3S5-0-5S6-0-6S5--||

 


 


 Pre-Chorus


 Q +E. S +H Q +E. S +H Q +E. S +H Q +E. S +E Q.


 

 
 |-----------------|-----------------||-----------------|--------------------||
 |-----------------|-----------------||-----------------|--------------------||
 |-3--(3)-5-(5)----|-3--(3)-5-(5)----||-6--(6)-8-(8)----|-6--(6)-8-(8)-9-----||
 |-----------------|-----------------||-----------------|--------------------||


Important: The song above is NOT stored on the Chordie server. The original song is hosted at www.guitartabs.cc. Chordie works as a search engine and provides on-the-fly formatting. Chordie does not index songs against artists'/composers' will. To remove this song please click here.

This song is displayed as text-only. Transposing and tuning is only available for chordpro-songs.
Rate #1 of 1 versions

Login - add to songbook

SHARE PAGE  




You need to log in to post comments