Guitar Tabs, Chords and Lyrics
Server problems seems to be fixed. Chordie has been experiencing problems with songs disappearing. These issues now seems to be fixed, but still verifying the fix. If you find anything strange, please email admin@chordie.com.


Egypt  Symphony X

As recorded by Symphony X
(From the 2000 Album V: THE NEW MYTHOLOGY SUITE)
Transcribed by Victor Kuri
Words by Romeo, Allen, Rullo Music by Romeo, Pinnella, Lepond
[D5]0 0 x x x x
[B5]x 2 4 x x x
[A5]x 0 2 x x x
[G5]5 5 x x x x
[C#m]x 4 2 x x x
A5V
7 7 x x x x
[G#5]6 6 x x x x
[E5]2 2 x x x x
[C#5]x 4 6 x x x
[Bb5]x 1 3 x x x
[C#5/Ab]6 4 x x x x
[G/E]x x x 9 8 7
[Gm/Bb]x x x 3 3 3
[C/E]x x x 9 8 8
[Bm/D]x x x 7 7 7
[Am/C]x x x 5 5 5
[Em/B]x x x 4 5 3
C#5/AbXIII
x x x 13 14 16
[D5/A]x x x 14 15 17
[B5/F#]x x x 11 12 14
[Bb5/F]x x x 10 11 13
E5IX
x x x 9 12 12
G#5XIII
x x x 13 16 16
D5/AIII
7 5 x x x x
[Eb5/Bb]8 6 x x x x
[C5/G]5 3 x x x x
[G5/D]x 5 5 x x x
[F#5/C#]x 4 4 x x x
[B]x x x 4 x 7
[A]x x x 2 x 5
[F#]x x 4 x 7 x
[D]x 5 x 7 x x
[E]x x 2 x 5 x
[A/C#]x x x 6 x 5
Bm/D(type 2)
x x x 7 x 7
[C#m/E]x x x 9 x 9
[Em/G]x x x 12 x 12
Bm/D(type 3)
x x x 7 0 x
Gtr I (D A D G B E) - 'Acoustic Steel 1'
Gtr II (D A D G B E) - 'Electric Distorted 1'
Gtr III (D A D G B E) - 'Electric Clean'
Gtr IV (D A D G B E) - 'Electric Distorted 2'
Gtr V (D A D G B E) - 'Piano'
Gtr VI (D A D G B E) - 'Acoustic Steel 2'
Intro
Q=167
[D5]  
[4/4] Gtrs II, IV
[B]| [+B] | [+B] | [+B] |
[/] [/] [/] [/]  
Gtr I
~~ ~~
|-3-|
Q E E H E E E E Q E E E
 
 ||-----------------|---------------------|
 ||o----------------|---------------------|
 ||------7-5--7-----|--7--8-7-5--7--5-----|
 ||-----------------|-----------------6---|
 ||o----------------|-------------------5-|
 ||--0-----------0--|-(0)-----------------|

| H. Q +W
|
| Gtr VI
| ~~ ~~
| |-3-|
| Q E E H E E E E Q E E E
 
 ||-----------------|---------------8-----|
 ||o----------------|-----------------9---|
 ||-----------------|-------------------7-|
 ||-----------------|---------------------|
 ||o-----5-3--5-----|--5--6-5-3--5--------|
 ||--0-----------0--|-(0)-----------------|

H. Q +W
+H +H +H. [D5]E E
| | | | |
[/] [/] [/] [/] [/] 
~
Q E E E E E E E E E E Q Q
 
 |------------------|-------10------------|
 |--------------7-9-|--9h10----10p9--7----|
 |-----7-5--7-8-----|---------------------|
 |------------------|---------------------|
 |------------------|---------------------|
 |--0---------------|--0------------------|

| W W
|
| ~
| Q E E E E E E E E E E Q Q
 
 |------------------|---------------------|
 |------------------|---------------------|
 |------------------|--------7------------|
 |--------------4-6-|--6h=7-----7p6--4----|
 |-----5-3--5-6-----|---------------------|
 |--0---------------|--0------------------|

W W
W +W
| |
[/] [/]  
~ ~
|-3-|
Q E E H E E E E Q E E E
 
 |---------------|--------------------|
 |---------------|--------------------|
 |-----7-5-7-----|--7--8-7-5-7--5-----|
 |---------------|----------------6---|
 |---------------|------------------5-|
 |-0----------0--|-(0)----------------|

| H. Q +W
|
| ~ ~
| |-3-|
| Q E E H E E E E Q E E E
 
 |---------------|--------------8-----|
 |---------------|----------------9---|
 |---------------|------------------7-|
 |---------------|--------------------|
 |-----5-3-5-----|--5--6-5-3-5--------|
 |-0----------0--|-(0)----------------|

H. Q +W
+W +H. E E
| | | |
[/] [/] [/] [/] 
|-3--|
[E] [E] [E] [E] [E] [E] [E] [E] [E] [E] [E] [E] [E] [E] [E] [E] [E]  
 
 |------------------------|-----------------------||
 |-13S12-12----12S10-10---|--9h10p9-7-10-9-------o||
 |----------------------7-|----------------7-5-7--||
 |----------12------------|-----------------------||
 |------------------------|----------------------o||
 |------------------------|-----------------------||

|
| |-3--|
| E E E E E E E E E E E E E E E E E
 
 |------------------------|-----------------------||
 |------------------------|----------------------o||
 |--5S=4--4-----4S=2--2---|-----------------------||
 |----------------------0-|--6h=7p6-4--7-6--------||
 |-----------5------------|----------------5-3-5-o||
 |------------------------|-----------------------||

Intro Theme II
[2/4] Gtrs I, V[3/4]I
~~~~~~ ~~~~~~
E E E E E E E E +E E E E E E E E E E E +E E E 4x
 
 ||----------|---------------|-------------|------------------||
 ||o-0---1---|-------1-(1)---|---0---1-----|-----1-(1)-------o||
 ||----------|-2h4---------2-|-----------2h|=4----------2-----||
 ||----3---3-|-----3---------|-3---3---3---|---3-----------3--||
 ||o---------|---------------|-------------|-----------------o||
 ||----------|---------------|-------------|------------------||

|
| Gtrs II, IV
| ~~~ ~~~~~~~
| E E E E E E E E Q E E E E Q E E E E +E E 4x
 
 ||----------|---------------|-------------|------------------||
 ||o---------|---------------|-------------|-----------------o||
 ||----------|---------------|-------------|------------------||
 ||----------|---------------|-------------|------------------||
 ||o---------|---------------|-------------|-----------------o||
 ||--3-1-3---|---3-1-3--3----|-1-3-1-3-----|-3-1-3--3--(3)-1--||

Intro Theme III
[4/4] Gtr VI
[E] [E] [E] [E] [E] [E] [E] [E] [E] [E] [E] [E] [E] [E] [E] [E]  
 
 ||-----16----16--------16----|-16----16-----16-----16-----|
 ||o-------16--------------16-|----18-----16---------------|
 ||--19----------17h=19-------|------------------19-----17h|
 ||---------------------------|----------------------------|
 ||o--------------------------|----------------------------|
 ||---------------------------|----------------------------|

|
| Gtr I
| E E E E E E E E E E E E E E E E
 
 ||------4-----4---------4----|--4-----4------4------4-----|
 ||o--------4---------------4-|-----6------4---------------|
 ||---7-----------5h==7-------|-------------------7------5h|
 ||---------------------------|----------------------------|
 ||o--------------------------|----------------------------|
 ||---------------------------|----------------------------|

|
| Gtrs II, IV
| H +Q. E E E +E E +E E +E E
 
 ||---------------------------|----------------------------|
 ||o--------------------------|----------------------------|
 ||---------------------------|----------------------------|
 ||---------------------------|-------------------0-(0)--1-|
 ||o--------------------------|--0--2-(2)--3-(3)-----------|
 ||---6----------(6)--------6-|-------------------0-(0)--1-|

[E] [E] [E] [E] [E] [E] [E] [E] [E] [E] [E] [E] [E] [E] [E] [E]  
 
 |-----16----16----16-------|-16-----16----16------------||
 |--------16----------------|-----16----18-----16-------o||
 |-19-----------------17h19-|---------------------19p17--||
 |--------------18----------|----------------------------||
 |--------------------------|---------------------------o||
 |--------------------------|----------------------------||

|
| E E E E E E E E E E E E E E E E
 
 |------4-----4-----4-------|--4------4-----4------------||
 |---------4----------------|------4-----6------4-------o||
 |--7------------------5h=7-|----------------------7p=5--||
 |---------------6----------|----------------------------||
 |--------------------------|---------------------------o||
 |--------------------------|----------------------------||

|
| H. Q +H +E E E E
 
 |--------------------------|----------------------------||
 |--------------------------|---------------------------o||
 |--------------------------|----------------------------||
 |--0-----------------------|----------------------------||
 |--------------------------|---------------------------o||
 |--0------------------4----|-(4)----------(4)--4--6--7--||

Pre-Verse
Gtr V
[E] [E] [E] [E] [E] [E] [E] [E] [E] [E] [E] [E] [E] [E] [E] [E]  
 
 ||--10---11---8-10---11-|---13------11-10----11----|
 ||o----9----9------9----|-9---------------10----10-|
 ||----------------------|------13------------------|
 ||----------------------|--------------------------|
 ||o---------------------|--------------------------|
 ||----------------------|--------------------------|

|
| Gtrs II, IV
 
 | PM| PM--------------------|

| E E E Q E E E E E S S E E E E E
 
 ||----------------------|--------------------------|
 ||o---------------------|--------------------------|
 ||----------------------|--------------------------|
 ||----------------------|--------------------------|
 ||o---------------------|--------------------------|
 ||---6-4--6------6-4--6-|-4--7--6-6--4--6--4--6----|

|
 
 | PM| PM--------------------|

| E E E Q E E E E E S S E E E E E
 
 ||----------------------|--------------------------|
 ||o---------------------|--------------------------|
 ||----------------------|--------------------------|
 ||----------------------|--------------------------|
 ||o---------------------|--------------------------|
 ||---6-4--6------6-4--6-|-4--7--6-6--4--6--4--6----|

1.
[E] [E] [E] [E] [E] [E] [E] [E] [E] [E] [E] [E] [E] [E] [E] [E]  
 
 |-8-10----11----13----14-|-13-11------11---10-----10-8---||
 |------10----10----10----|--------------------9---------o||
 |------------------------|---------13--------------------||
 |------------------------|-------------------------------||
 |------------------------|------------------------------o||
 |------------------------|-------------------------------||

|
 
 | PM---------------|

| E E E E E E E E E S S E S S E S S Q
 
 |------------------------|-------------------------------||
 |------------------------|------------------------------o||
 |------------------------|-------------------------------||
 |------------------------|--6--4-4-----------------------||
 |------------------------|----------6--5-5--3-3-3--0----o||
 |----6--4--6--4--7--6--4-|-------------------------------||

|
 
 | PM---------------|

| E E E E E E E E E S S E S S E S S Q
 
 |------------------------|-------------------------------||
 |------------------------|------------------------------o||
 |------------------------|-------------------------------||
 |------------------------|--6--4-6-----------------------||
 |------------------------|----------6--5-6--3-3-5-------o||
 |----6--4--6--4--7--6--4-|-------------------------7-----||

2.
[2/4]  
[E] [E] [E] [E] [E] [E] [E] [E] [E] [E] [E] [E] [E] [E] [E] [E]  
 
 |-13-11------11---|-10-----10-8---|-13-11----11-|-10-------10---8---|
 |-----------------|----9----------|-------------|------9------------|
 |---------13------|---------------|-------13----|-------------------|
 |-----------------|---------------|-------------|-------------------|
 |-----------------|---------------|-------------|-------------------|
 |-----------------|---------------|-------------|-------------------|

|
| PM---|
| E S S E S S E S S E S S E e E E S S S S S S S S
 
 |-----------------|---------------|-------------|-------------------|
 |-----------------|---------------|-------------|-------------------|
 |-----------------|---------------|-------------|-------------------|
 |--6--4-4---------|---------------|-------------|-------------------|
 |----------6--5-5-|--3-3-3--------|-------------|-------------------|
 |-----------------|---------7-6-6-|--4--4--1--2-|--2h3p2p0--2h3p2p0-|

|
| PM---|
| E S S E S S E S S E S S E e E E S S S S S S S S
 
 |-----------------|---------------|-------------|-------------------|
 |-----------------|---------------|-------------|-------------------|
 |-----------------|---------------|-------------|-------------------|
 |--6--4-6---------|---------------|-------------|-------------------|
 |----------6--5-6-|--3-3-5--------|-------------|-------------------|
 |-----------------|---------7-6-6-|--4--4--1--2-|--2h3p2p0--2h3p2p0-|

1st, 2nd Verse
$
[G/E]  
[4/4] Gtrs II, IV
 
 PM| PM| PM--------------| ~~~~~~

E E E E E E E E E E S S S S S S S S E +E
 
 ||------------------|---------------------------|
 ||o-----------------|---------------------------|
 ||------------------|---------------------------|
 ||------------------|---------------------------|
 ||o-----------------|---------------------------|
 ||--2-0-2-----2-0-2-|---0-2-3-2-0-2-3-2-0-3-(3)-|

[Gm/Bb] [Bm/D]  
 
 PM| PM| PM--------------| ~~~~~~

E E E E E E E E E E S S S S S S S S E +E
 
 |-----------------|-----------------------------|
 |-----------------|-----------------------------|
 |-----------------|-----------------------------|
 |-----------------|-----------------------------|
 |-----------------|-----------------------------|
 |-2-0-2-----2-0-2-|---0-2-3-2-0-2-3-2-0-3-(3)---|

[C/E] [Am/C]  
 
 PM| PM| PM------|

E E E E E E E E E E S S S S Q Q
 
 |-----------------|-------------------|
 |-----------------|-------------------|
 |-----------------|-------------------|
 |-----------------|-------------------|
 |-----------------|-------------3--2--|
 |-2-0-2-----2-0-2-|---0-2-3-2-0-------|

1. 2.
[G/E]~~~~~[Em/B]~~~~~~ ~~~~~~~~~~~~~~~~~~~~~~~~~~~~~~~~
Q. E +Q Q +E Q. Q Q E Q. Q Q
 
 |----------------|-----------------||-----------------|
 |----------------|----------------o||-----------------|
 |----------------|-----------------||-----------------|
 |----------------|-----------------||-----------------|
 |----------------|-------------1--o||----------5--3---|
 |-2----5-(5)--4--|-(4)-1----2------||-(4)-1-----------|

Pre-Chorus
To Coda
[B5B]Gtr I[B5]I[A] [A5] [A5] [FB5] [B5] [D] [G5] [E] [C#m] [A5]
H +Q. E +Q Q +H Q. Q. Q
| | | | | | | | |
[/] [/] [/] [/] [/] [/] [/] [/] [/] 
Gtr IV
H +Q E E +Q Q +H Q. E +Q Q 4x
 
 ||----------------|----------------|------------------||
 ||o---------------|----------------|-----------------o||
 ||----------------|----------------|------------------||
 ||--4----(4)--x-2-|-(2)--4--(4)----|------2--(2)--2---||
 ||o-2----(2)--x-0-|-(0)--2--(2)----|-5----4--(4)--0--o||
 ||----------------|----------------|-5----------------||

G5 Bm/D(type 3)A/C# Bm/D(typeC#m/E Em/G
H +Q. E W W
| |
[/] [/]  
Gtrs II, IV
 
 ~~~ PM--------------|
 |-3-| |-3-| |-3-|

H +Q. E +H +H Q Q Q E E E E E E
 
 |--------------|---------------|--------------------|
 |--------------|---------------|--------------------|
 |--------------|---------------|--------------------|
 |------------2-|-(2)----(2)----|-------5-4-2--------|
 |-5----(5)---0-|-(0)----(0)----|-0-0-0-------5-4-2--|
 |-5----(5)-----|---------------|-2-2-2--------------|

Chorus
C#5 C#5/AbXIII D5 D5/A C#5 C#5/AbXIII
Gtr II
W +H H +W W
| | | | |
[/] [/] [/] [/] [/] 
Gtr IV
W +H H +W W
 
 ||-----------|-------------|------------|---------|
 ||o----------|-------------|------------|---------|
 ||-----------|-------------|------------|---------|
 ||--6--------|-(6)----7----|-(7)--------|-6-------|
 ||o-4--------|-(4)----5----|-(5)--------|-4-------|
 ||-----------|-------------|------------|---------|

B5 B5/F# Bb5Bb5/F E5 E5IX
+H H +W W +H H
| | | | | |
[/] [/] [/] [/] [/] [/] 
+H H +W W +H H
 
 |-------------|------------|----------|-------------|
 |-------------|------------|----------|-------------|
 |-------------|------------|----------|-------------|
 |-(6)----4----|-(4)--------|-3--------|-(3)---------|
 |-(4)----2----|-(2)--------|-1--------|-(1)----2----|
 |-------------|------------|----------|--------2----|

B5 B5/F# G#5 G#5XIII G#5 G#5XIII
+W W +H H +W [6/4] W +Q Q
| | | | | | | |
/ / / / / / / o
+W W +H H +W W +Q Q
 
 |------------|----------|-------------|-------------||---------------------|
 |------------|----------|-------------|------------o||---------------------|
 |------------|----------|-------------|-------------||---------------------|
 |------------|-4--------|-(4)---------|-------------||---------------------|
 |-(2)--------|-2--------|-(2)----6----|-(6)--------o||-6--------(6)--[1]---|
 |-(2)--------|----------|--------6----|-(6)---------||-6--------(6)--------|

Pre-Verse
[4/4] Gtr V
[E] [E] [E] [E] [E] [E] [E] [E] [E] [E] [E] [E] [E] [E] [E] [E]  
 
 ||--14----15----12-14----15-|----17-------15-14----15----|
 ||o----13----13-------13----|-13----------------14----14-|
 ||--------------------------|-------17-------------------|
 ||--------------------------|----------------------------|
 ||o-------------------------|----------------------------|
 ||--------------------------|----------------------------|

|
| Gtr II
 
 | PM-----------| PM---|

| E E E E E E E E E E S S E E E E E
 
 ||--------------------------|----------------------------|
 ||o-------------------------|----------------------------|
 ||--------------------------|----------------------------|
 ||--------------------------|----------------------------|
 ||o-------------------------|----------------------------|
 ||--10--8-10-------10--8-10-|--8-11-10-10--8-10--8-10----|

|
| Gtr IV
 
 | PM| PM-----------| PM---|

| E E E E E E E E E E S S E E E E E
 
 ||--------------------------|----------------------------|
 ||o-------------------------|----------------------------|
 ||--------------------------|----------------------------|
 ||--------------------------|----------------------------|
 ||o-------------------------|----------------------------|
 ||--10--8-10-------10--8-10-|--8-11-10-10--8-10--8-10----|

1.
[E] [E] [E] [E] [E] [E] [E] [E] [E] [E] [E] [E] [E] [E] [E] [E]  
 
 |-12-14----15----17----18-|-17-15------15----14------14-12--||
 |-------14----14----14----|---------------------13---------o||
 |-------------------------|---------17----------------------||
 |-------------------------|---------------------------------||
 |-------------------------|--------------------------------o||
 |-------------------------|---------------------------------||

|
 
 | PM---------------| ~~

| E E E E E E E E E S S E S S E S S Q
 
 |-------------------------|---------------------------------||
 |-------------------------|--------------------------------o||
 |-------------------------|---------------------------------||
 |-------------------------|-10--8-8-------------------------||
 |-------------------------|---------10--9--9--7--7-7-------o||
 |----10--8-10--8-11-10--8-|--------------------------11-----||

|
 
 | PM---------------|

| E E E E E E E E E S S E S S E S S Q
 
 |-------------------------|---------------------------------||
 |-------------------------|--------------------------------o||
 |-------------------------|---------------------------------||
 |-------------------------|-10--8-8-------------------------||
 |-------------------------|---------10--9-10--7--7-9-------o||
 |----10--8-10--8-11-10--8-|--------------------------11-----||

2.
D.S. al Coda
[2/4] Gtr V
[E] [E] [E] [E] [E] [E] [E] [E] [E] [E] [E] [E] [E] [E] [E] [E]  
 
 |-17-15------15----|-14------14-12----|-17-15------15-|-14----14-12-|
 |------------------|----13------------|---------------|----13-------|
 |---------17-------|------------------|---------17----|-------------|
 |------------------|------------------|---------------|-------------|
 |------------------|------------------|---------------|-------------|
 |------------------|------------------|---------------|-------------|

|
| Gtr II
 
 | PM------|

| E S S E S S E S S E S S E S S E E E E E E
 
 |------------------|------------------|---------------|-------------|
 |------------------|------------------|---------------|-------------|
 |------------------|------------------|---------------|-------------|
 |-10--8-8----------|------------------|---------------|-------------|
 |---------10--9--9-|--7--7-7----------|---------------|-------------|
 |------------------|---------11-10-10-|--8--8-8--5--4-|--2--0--2--4-|

|
| Gtr IV
 
 | PM--------------|

| E S S E S S E S S E S S E S S E E E E E E
 
 |------------------|------------------|---------------|-------------|
 |------------------|------------------|---------------|-------------|
 |------------------|------------------|---------------|-------------|
 |-10--8-8----------|------------------|---------------|-------------|
 |---------10--9-10-|--7--7-7----------|---------------|-------------|
 |------------------|---------11-10-10-|--8--8-8--5--4-|--2--0--2--4-|

Interlude Theme
&
[Bb5]  
Gtr II[3/4]
H +H +Q +H. H.
| | | |
[/] [/] [/] [/]  
Gtr III
[E] [E] [E] [E] [E] [E] [E] [E] [E] [E] [E] [E] [E] [E] [E] [E] [E] [E] [E] [E] [E] [E]  
 
 ||----------|---------------|---------------|--------------|
 ||o---------|---------------|---------------|--------------|
 ||------3---|------3------3-|-----3---3---3-|------3-----3-|
 ||----3---3-|----3------3---|---------------|----3-----3---|
 ||o-1-------|---------------|--0----1-------|-2------0-----|
 ||----------|--1-----4------|-----------6---|--------------|

Gtr III
[E] [E] [E] [E] [E] [E] [E] [E] [E] [E] [E] [E] [E] [E] [E] [E] [E] [E] [E] [E] [E] [E] [E] [E]  
 
 |-------------|-------------|-------------|---------------||
 |-------------|-------------|-------------|--------------o||
 |-----3-------|-3-----3---3-|---3---3-----|-3-----3---3---||
 |---3---3---3-|-----3-------|-----------3-|-----3---------||
 |-1-----------|---------0---|-1-----------|--------------o||
 |---------1---|---4---------|-----6---4---|---2-----3-----||

Keyboard Solo (Theme II)
[5/4] Gtr II[3/4]
~~ ~~~~~~~~~~~~~~~~~~~~~~~~~~~~~~~~~
Q E E +Q E +Q. +E +E E E E E
 
 ||--------------------------------|-----------------------|
 ||o-17---15-17-(17)---------------|-----------17-18-17-15-|
 ||--------------------14-(14)-----|-(14)-(14)-------------|
 ||--------------------------------|-----------------------|
 ||o-------------------------------|-----------------------|
 ||--------------------------------|-----------------------|

|
| Gtr III
| E E E E E E E E E E E E E E E E
 
 ||--------------------------------|-----------------------|
 ||o-------------------------------|-----------------------|
 ||--------2------------2--------2-|-----------------------|
 ||-----2-----2------2---------2---|--------7------7-----7-|
 ||o--0----------------------------|-----------------------|
 ||---------------0---------3------|---6--------7-----5----|

E +E E Q E E +E E Q E
 
 |---------17-16------|---------------------|
 |-17-(17)---------18-|-17-(17)-16----------|
 |--------------------|------------17---16--|
 |--------------------|---------------------|
 |--------------------|---------------------|
 |--------------------|---------------------|

|
| E E E E E E E E E E E E
 
 |--------------------|---------------------|
 |--------------------|---------------------|
 |--------------------|---------------------|
 |----------7-------7-|----------7----------|
 |------7--------7----|------7------7----7--|
 |--8----------6------|--7------------0-----|

~~~~
[E] [E] [E] [E] [E] [E] [E] [E] [E] [E] [E] [+E]  
 
 |-------------------|---------------------|
 |----16-17-18-17-16-|---------------------|
 |-17----------------|-17-16-14-17-16-(16)-|
 |-------------------|---------------------|
 |-------------------|---------------------|
 |-------------------|---------------------|

|
| E E E E E E E E E E E E
 
 |-------------------|---------------------|
 |-------------------|---------------------|
 |-----------2-------|---------------------|
 |--7-----2--------7-|-----7-----7------2--|
 |-------------------|---------------------|
 |-----3--------6----|--7-----5-----3------|

1. 2.
~~~~~~[4/4]
+Q. E E E E Q E E E E E
 
 |--------------------||---------------15-14-17-|
 |----------------16-o||-17-16---18-17----------|
 |-(16)-----14-17-----||------------------------|
 |--------------------||------------------------|
 |-------------------o||------------------------|
 |--------------------||------------------------|

|
| E E E E E E E E E E E E E E
 
 |--------------------||------------------------|
 |-------------------o||------------------------|
 |---2-------2-----2--||--2-------2-----2-----2-|
 |--------2-----------||-------2----------------|
 |-------------------o||------------------------|
 |------1-------2-----||-----1-------2-----3----|

Interlude Theme III
[5/4] Gtr II[3/4]
W +Q W W W
| |
o /
Gtr IV
~~~~~~~~ ~~~~~~~~~~
Q +Q Q +E E +Q Q Q Q Q +E E +Q H Q
 
 ||----------------------------|-------------|-----------------|--------------|
 ||o---------------------------|-------------|-----------------|--------------|
 ||----------------------------|-------------|-----------------|--------------|
 ||----------------------------|-------------|-----------------|--------------|
 ||o-3---(3)-------------------|-2---3---1---|-4---(4)-2-(2)---|-3------------|
 ||------------3---(3)-6-(6)---|-------------|-----------------|---------3----|

|
| Gtr III
| E E E E E E E E E E E E E E E E E E E E E E E E E E E E
 
 ||----------------------------|-------------|-----------------|--------------|
 ||o---------------------------|---1---1---1-|---------------1-|--------------|
 ||-------5---------5--------5-|-------------|------5-----0----|-----5--------|
 ||----5-----5---5--------5----|-------------|---5-------------|---5---5---5--|
 ||o-3-------------------------|-2---3---1---|-4-------2-------|-3------------|
 ||------------3-------6-------|-------------|-----------------|---------3----|

1. 2.
[3/4] ~~~~~~~~~~~~~~~~~~~~~~
E +Q Q. Q Q Q E +Q Q. H.
 
 |----------------|-------------|-----------------||--------------|
 |----------------|-------------|----------------o||--------------|
 |----------------|-------------|-----------------||--------------|
 |----------------|-------------|-----------------||--------------|
 |---------2------|-3---1-------|----------------o||--------------|
 |-6-(6)----------|---------6---|-4-(4)---5-------||-3------------|

|
| E E E E E E E E E E E E E E E E E E E E E E E E
 
 |----------------|-------------|-----------------||--------------|
 |--------------1-|---1---1-----|----------------o||--------------|
 |-5-------5------|-------------|-5-------5----5--||-5------5-----|
 |-------5--------|-----------5-|-------5---------||------5-----5-|
 |------------2---|-3---1-------|----------------o||--------------|
 |----6-----------|---------6---|----4-------5----||----5-----3---|

H.=H
[3/4] [4/4] ~~~
E +Q Q. Q Q +E E +Q W +W
 
 |----------------|----------------------|----------|--------|
 |----------------|----------------------|----------|--------|
 |----------------|----------------------|----------|--------|
 |---------0------|----------------------|----------|--------|
 |----------------|-2---3---(3)-1-(1)----|-4--------|-(4)----|
 |-1-(1)----------|-----5---(5)-3-(3)----|-6--------|-(6)----|

|
| ~~~
| E E E E E E E E E E E E E E W +W
 
 |----------------|----------------------|----------|--------|
 |---------1----1-|---1------------------|----------|--------|
 |-5-----0--------|----------5-----------|-1--------|-(1)----|
 |------------0---|-------5-----------10-|-3--------|-(3)----|
 |----------------|-2---3---------10-----|-4--------|-(4)----|
 |----1-----------|-------------8--------|----------|--------|

Guitar Solos
Wx30 [3/4] Wx6
 
 |-------------|--------|
 |-------------|--------|
 |-------------|--------|
 |-------------|--------|
 |-------------|--------|
 |-------------|--------|

Bridge
D5/AIII Eb5/BbC5/G C5/D5/AIII Eb5/C5/GEb5/BbG5/DF#5/C#
[3/4] Gtr II
E E E E E E E E E E E E Q E E E E E E E E E E E E E E E E
 
 ||--------------|-------------|------------|-------------|---------------||
 ||o-------------|-------------|------------|-------------|--------------o||
 ||--------------|-------------|------------|-------------|---------------||
 ||--------------|-------------|------------|-------------|---5-5-4-4-----||
 ||o-5---5-5---6-|---3-3---6---|-3--5---5-5-|---6---3-3-6-|-6-5-5-4-4-6--o||
 ||--7---7-7---8-|---5-5---8---|-5--7---7-7-|---8---5-5-8-|-8---------8---||

Gtr II
E E E E E E E E E E E E Q E E E E E E E E E E E E E E E E 4x
 
 ||--------------|-------------|------------|-------------|--------------||
 ||o-------------|-------------|------------|-------------|-------------o||
 ||--------------|-------------|------------|-------------|--------------||
 ||--------------|-------------|------------|-------------|--------------||
 ||o-------------|-------------|------------|-------------|---1-1-0-0---o||
 ||--3---3-3---4-|---1-1---4---|-1--3---3-3-|---4---1-1-4-|-4---------4--||

|
| Gtr IV
| E E E E E E E E E E E E Q E E E E E E E E E E E E E E E E 4x
 
 ||--------------|-------------|------------|-------------|--------------||
 ||o-------------|-------------|------------|-------------|-------------o||
 ||--------------|-------------|------------|-------------|--------------||
 ||--------------|-------------|------------|-------------|--------------||
 ||o-------------|-------------|------------|-------------|-------------o||
 ||--3---3-3---4-|---1-1---4---|-1--3---3-3-|---4---1-1-4-|-4-3-3-2-2-4--||

Breakdown
[4/4] Gtr V
[E] [E] [E] [E] [E] [E] [E] [E] [E] [E] [E] [E] [E] [E] [E] [E]  
 
 ||--10---11---8-10---11-|---13------11-10----11----|
 ||o----9----9------9----|-9---------------10----10-|
 ||----------------------|------13------------------|
 ||----------------------|--------------------------|
 ||o---------------------|--------------------------|
 ||----------------------|--------------------------|

|
| Gtr II
 
 | PM| PM--------------------|

| E E E Q E E E E E S S E E E E E
 
 ||----------------------|--------------------------|
 ||o---------------------|--------------------------|
 ||----------------------|--------------------------|
 ||----------------------|--------------------------|
 ||o---------------------|--------------------------|
 ||---6-4--6------6-4--6-|-4--7--6-6--4--6--4--6----|

|
| Gtr IV
 
 | PM| PM--------------------|

| E E E Q E E E E E S S E E E E E
 
 ||----------------------|--------------------------|
 ||o---------------------|--------------------------|
 ||----------------------|--------------------------|
 ||----------------------|--------------------------|
 ||o---------------------|--------------------------|
 ||---6-4--6------6-4--6-|-4--7--6-6--4--6--4--6----|

1.
[E] [E] [E] [E] [E] [E] [E] [E] [E] [E] [E] [E] [E] [E] [E] [E]  
 
 |-8-10----11----13----14-|-13-11------11---10-----10-8--||
 |------10----10----10----|--------------------9--------o||
 |------------------------|---------13-------------------||
 |------------------------|------------------------------||
 |------------------------|-----------------------------o||
 |------------------------|------------------------------||

|
 
 | PM---------------|

| E E E E E E E E E S S E S S E S S Q
 
 |------------------------|------------------------------||
 |------------------------|-----------------------------o||
 |------------------------|------------------------------||
 |------------------------|--6--4-4----------------------||
 |------------------------|----------6--5-5--3-3-3--0---o||
 |----6--4--6--4--7--6--4-|------------------------------||

|
 
 | PM---------------|

| E E E E E E E E E S S E S S E S S Q
 
 |------------------------|------------------------------||
 |------------------------|-----------------------------o||
 |------------------------|------------------------------||
 |------------------------|--6--4-6----------------------||
 |------------------------|----------6--5-6--3-3-5------o||
 |----6--4--6--4--7--6--4-|-------------------------7----||

Guitar Break
2.
[2/4] E E E E E E E E E E E E S S S S S S S S
 
 |-13-11------11---|-10-----10-8---|-13-11----11-|-10-8-------------------17-|
 |-----------------|----9----------|-------------|------11---9-13-15---16----|
 |---------13------|---------------|-------13----|---------------------------|
 |-----------------|---------------|-------------|---------------------------|
 |-----------------|---------------|-------------|---------------------------|
 |-----------------|---------------|-------------|---------------------------|

|
 
 | |-------3--------|

| E S S E S S E S S E S S E E E E Q Q Q
 
 |-----------------|---------------|-------------|---------------------------|
 |-----------------|---------------|-------------|---------------------------|
 |-----------------|---------------|-------------|---------------------------|
 |--6--4-4---------|---------------|-------------|---------------------------|
 |----------6--5-5-|--3-3-3--------|-------------|---------0---------3-------|
 |-----------------|---------7-6-6-|--4--4--3--1-|--4------------------------|

|
 
 | |-------3--------|

| E S S E S S E S S E S S E E E E Q Q Q
 
 |-----------------|---------------|-------------|---------------------------|
 |-----------------|---------------|-------------|---------------------------|
 |-----------------|---------------|-------------|---------------------------|
 |--6--4-6---------|---------------|-------------|---------------------------|
 |----------6--5-6-|--3-3-5--------|-------------|---------0---------3-------|
 |-----------------|---------7-6-6-|--4--4--3--1-|--4------------------------|

Out-Chorus
C#5 C#5/AbXIII D5 D5/A C#5 C#5/AbXIII
[4/4] Gtr II
W +H H +W W
| | | | |
[/] [/] [/] [/] [/] 
Gtr IV
W +H H +W W
 
 ||-----------|-------------|------------|---------|
 ||o----------|-------------|------------|---------|
 ||-----------|-------------|------------|---------|
 ||--6--------|-(6)----7----|-(7)--------|-6-------|
 ||o-4--------|-(4)----5----|-(5)--------|-4-------|
 ||-----------|-------------|------------|---------|

B5 B5/F# Bb5Bb5/F E5 E5IX
+H H +W W +H H
| | | | | |
[/] [/] [/] [/] [/] [/] 
+H H +W W +H H
 
 |-------------|------------|----------|-------------|
 |-------------|------------|----------|-------------|
 |-------------|------------|----------|-------------|
 |-(6)----4----|-(4)--------|-3--------|-(3)---------|
 |-(4)----2----|-(2)--------|-1--------|-(1)----2----|
 |-------------|------------|----------|--------2----|

B5 B5/F# G#5 G#5XIII G#5 G#5XIII C#5/Ab
+W W +H H [4/4] +W [6/4] W Q E E
| | | | | | | |
[/] [/] [/] [/] [/] [/] [/] [/] 
+W W +H H +W W Q E E
 
 |------------|----------|-------------|-------------||--------------------*|
 |------------|----------|-------------|------------o||--------------------*|
 |------------|----------|-------------|-------------||--------------------*|
 |------------|-4--------|-(4)---------|-------------||--------------------*|
 |-(2)--------|-2--------|-(2)----6----|-(6)--------o||-6-----------4-4----*|
 |-(2)--------|----------|--------6----|-(6)---------||-6-----------6-6----*|

Duration Legend
 
 ---------------
 W - whole; H - half; Q - quarter; E - 8th; S - 16th; T - 32nd; X - 64th; a - acciaccatura

+ - note tied to previous; . - note dotted; .. - note double dotted
Uncapitalized letters represent notes that are staccato (1/2 duration)
Irregular groupings are notated above the duration line
Duration letters will always appear directly above the note/fret number it represents the
duration for. Duration letters with no fret number below them represent rests. Multi-
bar rests are notated in the form Wxn, where n is the number of bars to rest for. Low
melody durations appear below the staff
Tablature Legend
 
 ----------------

h - hammer-on
p - pull-off
b - bend
pb - pre-bend
r - bend release (if no number after the r, then release immediately)
/\ - slide into or out of (from/to "nowhere")
s - legato slide
S - shift slide
- natural harmonic
(n) - artificial harmonic
n(n) - tapped harmonic
~ - vibrato
tr - trill
T - tap
TP - trem. picking
PM - palm muting
\n/ - tremolo bar dip; n = amount to dip
\n - tremolo bar down
n/ - tremolo bar up
/n\ - tremolo bar inverted dip
= - hold bend; also acts as connecting device for hammers/pulls
- volume swell (louder/softer)
x - on rhythm slash represents muted slash
o - on rhythm slash represents single note slash
Misc Legend
 
 -----------

| - bar
|| - double bar
||o - repeat start
o|| - repeat end
*| - double bar (ending)
: - bar (freetime)
$ - Segno
& - Coda
Tempo markers - = BPM(8/16=s8/s16), where s8 = swing 8ths, s16 = swing 16ths

Important: The song above is NOT stored on the Chordie server. The original song is hosted at www.guitartabs.cc. Chordie works as a search engine and provides on-the-fly formatting. Chordie does not index songs against artists'/composers' will. To remove this song please click here.

Text color:
Chord color:
Chord grids: 
Font size:    
Page size: 

A A/C# A5 Am/C B B5 B5/F# Bb5 Bb5/F Bm/D C#5 C#m C#m/E C/E C5/G D D5 D5/A E E5 Em/B F# G#5 G/E G5 G5/D Gm/Bb
Rate #2 of 3 versions

Jango Player

Login - add to songbook

SHARE PAGE  




You need to log in to post comments