Guitar Tabs, Chords and Lyrics
Update 25:10. 13:00. Site is back up running again. Songbooks are recovered. Woring on getting search back up..


Inferno (Unleash the Fire)  Symphony X

Song: Inferno (Unleash the Fire)
Album:The Odyssey (2002)
Band: Symphony X
Copyright (c) ? InsideOut
Version 1.0 ? November 5, 2002
Transcribed by: MrtavDvaMjeseca
Email: juraj-marko.zerovnik@public.carnet.hr
Tune down 1 whole step
[(D] [G] [C] [F] [A] [D)]  
INTRO
=====
w/distortion
4/4 time
 
 /------------play two times-----------\-|
 |---------------------------------------|
 |---------------------------------------|
 |13-12-10-12-0-0-0-0-10-8-7-0-8-7-5-0---|
 |---------------------------------------|
 |---------------------------------------|
 |---------------------------------------|

pm........................
 
 /--------play two times----------\-|
 |----------------------------------|
 |----------------------------------|
 |7-5-4-0-------------------4-------|
 |--------6-5-6-5-5-5-6-5-6---6-5---|
 |----------------------------------|
 |----------------------------------|

pm................................
 
 |-------------------------------------|
 |-------------------------------------|
 |13-12-10-12-0-0-0-0-10-8-7-0-8-7-5-0-|
 |-------------------------------------|
 |-------------------------------------|
 |-------------------------------------|

pm........................
 
 |---------------------------------------|
 |---------------------------------------|
 |13-12-10-12-0-0-0-0-10-8-7-0-12-10-8-0-|
 |---------------------------------------|
 |---------------------------------------|
 |---------------------------------------|

pm..........................
 
 |------------------16-15-13----------------------|
 |15-13-12-------------------16-15-13-15-13-12----|
 |---------13-12-10----------------------------13-|
 |------------------------------------------------|
 |------------------------------------------------|
 |------------------------------------------------|
 |---------------------------------------------|
 |---------------------------------------------|
 |12-10-13-12-10-----------------------8-10-12-|
 |---------------13-12-10-9----9-10-12---------|
 |--------------------------10-----------------|
 |---------------------------------------------|

5/4 time
 
 |-----------------------------------------------|
 |-----------------------------------------------|
 |13-12-10-12-0-0-0-0-8-7-5-0-10-8-7-0-12-10-8-0-|
 |-----------------------------------------------|
 |-----------------------------------------------|
 |-----------------------------------------------|

pm.................................
7/8 time
 
 |--------------------------------------|
 |--------------------15-13-12----------|
 |13-12-10-12-0-0-0-0----------13-12-10-|
 |--------------------------------------|
 |--------------------------------------|
 |--------------------------------------|

pm......
5/4 time
 
 |-----------------------------------------------|
 |-----------------------------------------------|
 |13-12-10-12-0-0-0-0-8-7-5-0-10-8-7-0-12-10-8-0-|
 |-----------------------------------------------|
 |-----------------------------------------------|
 |-----------------------------------------------|

pm..................................
 
 |--------------------16-15-13----------------------------|
 |-----------------------------16-15-13-15-13-12----------|
 |13-12-10-12-0-0-0-0----------------------------13-12-10-|
 |--------------------------------------------------------|
 |--------------------------------------------------------|
 |--------------------------------------------------------|

pm.....
5/4 time
 
 |-----------------------------------------------|
 |-----------------------------------------------|
 |13-12-10-12-0-0-0-0-8-7-5-0-10-8-7-0-12-10-8-0-|
 |-----------------------------------------------|
 |-----------------------------------------------|
 |-----------------------------------------------|

pm.................................
7/8 time
 
 |--------------------------------------|
 |--------------------15-13-12----------|
 |13-12-10-12-0-0-0-0----------13-12-10-|
 |--------------------------------------|
 |--------------------------------------|
 |--------------------------------------|

pm......
5/4 time
 
 |-----------------------------------------------|
 |-----------------------------------------------|
 |13-12-10-12-0-0-0-0-8-7-5-0-10-8-7-0-12-10-8-0-|
 |-----------------------------------------------|
 |-----------------------------------------------|
 |-----------------------------------------------|

pm..................................
 
 |--------------------16-15-13----------------------------|
 |-----------------------------16-15-13-15-13-12----------|
 |13-12-10-12-0-0-0-0----------------------------13-12-10-|
 |--------------------------------------------------------|
 |--------------------------------------------------------|
 |--------------------------------------------------------|

pm.....
4/4 time
 
 |----------------------------------------------|
 |----------------------------------------------|
 |13-12-10--------------------------------------|
 |---------13-12-10-12-10-9---------------------|
 |--------------------------11-10-8-10~~~~~~~~~~|
 |----------------------------------------------|
 |----------------------|----------------------------------------|
 |----------------------|----------------------------------------|
 |----------------------|---3------------------------------------|
 |--------3-------------|---3------6--------2--------4-3---------|
 |1-1-1-1-1-------------|---1------6--------2------------6-5-2---|
 |----------------------|----------4--------0------------------4-|

pm....... pm..........
 
 |----------------------|----------------------------------------|
 |----------------------|----------------------------------------|
 |----------------------|----------------------------------------|
 |--------3-------------|---6------9--------5--------------------|
 |1-1-1-1-1-------------|---6------9--------5--------------------|
 |----------------------|---4------7--------3--------------------|

pm.......
 
 |----------------------|----------------------------------------|
 |----------------------|----------------------------------------|
 |----------------------|---3------------------------------------|
 |--------3---------3---|---3------6--------2--------------------|
 |1-1-1-1-1-----1-1-1---|---1------6--------2--------------------|
 |----------------------|----------4--------0---------/////x\\\\\|

pm....... pm...
 
 |------------------------------|------------------|-----------------------|
 |------------------------------|------------------|5----------------------|
 |------------------------------|------------------|-----------------------|
 |------------------------------|------------------|-----------------------|
 |1-1-1-1-1-----------1h2p1-----|---------1--2--4--|-----------------------|
 |-----------4-4-4----------4-2-|1--2--4-----------|-----------------------|

pm...............
 
 /-----------------------play four times------------------------\-|
 |------------------------------|---------------------------------|
 |------------------------------|---------------------------------|
 |------------------------------|---------------------------------|
 |------------------------------|---------------------------------|
 |----~~---------------------|---~~-------------------------|
 |0-----------0-----1p0-1p0h1h4-|0-----------0------0-0-0---0-0---|

pm..........
VERSE 1
=======
 
 /-----------------------play four times------------------------\-|
 |------------------------------|---------------------------------|
 |------------------------------|---------------------------------|
 |------------------------------|---------------------------------|
 |------------------------------|---------------------------------|
 |----~~---------------------|---~~-------------------------|
 |0-----------0-----1p0-1p0h1h4-|0-----------0------0-0-0---0-0---|

pm..........
 
 /-----------------------play four times------------------------\-|
 |------------------------------|---------------------------------|
 |------------------------------|---------------------------------|
 |------------------------------|---------------------------------|
 |------------------------------|---------------------------------|
 |----~~---------------------|---~~-------------------------|
 |0-----------0-----1p0-1p0h1h4-|0-----------0------0-0-0---0-0---|

pm..........
BRIDGE
======
6/8 time 4/4 time
 
 |---------------------|------------------------|----------------------|
 |---------------------|------------------------|----------------------|
 |---------------------|------------------------|----------------------|
 |---------------------|5h6p5p3-5---5h6p5p3-5-6-|--5---3---------------|
 |---------------------|------------------------|----------6---5---3---|
 |3--3--3--3--3--3--3--|------------------------|----------------------|

pm...................
6/8 time 4/4 time
 
 |---------------------|------------------------|----------------------|
 |---------------------|------------------------|----------------------|
 |---------------------|------------------------|-------------10--12---|
 |---------------------|7h8p7p5-7---7h8p7p5-7/8-|--10--12--13----------|
 |---------------------|------------------------|----------------------|
 |5--5--5--5--5--5--5--|------------------------|----------------------|

pm...................
MAIN PART
=========
5/4 time
 
 |-----------------------------------------------|
 |-----------------------------------------------|
 |13-12-10-12-0-0-0-0-8-7-5-0-10-8-7-0-12-10-8-0-|
 |-----------------------------------------------|
 |-----------------------------------------------|
 |-----------------------------------------------|

pm.................................
7/8 time
 
 |--------------------------------------|
 |--------------------15-13-12----------|
 |13-12-10-12-0-0-0-0----------13-12-10-|
 |--------------------------------------|
 |--------------------------------------|
 |--------------------------------------|

pm......
5/4 time
 
 |-----------------------------------------------|
 |-----------------------------------------------|
 |13-12-10-12-0-0-0-0-8-7-5-0-10-8-7-0-12-10-8-0-|
 |-----------------------------------------------|
 |-----------------------------------------------|
 |-----------------------------------------------|

pm.................................
 
 |--------------------16-12-13----------------------------|
 |-----------------------------16-15-13-15-13-12----------|
 |13-12-10-12-0-0-0-0----------------------------13-12-10-|
 |--------------------------------------------------------|
 |--------------------------------------------------------|
 |--------------------------------------------------------|

pm.................
5/4 time
 
 |-----------------------------------------------|
 |-----------------------------------------------|
 |13-12-10-12-0-0-0-0-8-7-5-0-10-8-7-0-12-10-8-0-|
 |-----------------------------------------------|
 |-----------------------------------------------|
 |-----------------------------------------------|

pm.................................
7/8 time
 
 |--------------------------------------|
 |--------------------15-13-12----------|
 |13-12-10-12-0-0-0-0----------13-12-10-|
 |--------------------------------------|
 |--------------------------------------|
 |--------------------------------------|

pm......
5/4 time
 
 |-----------------------------------------------|
 |-----------------------------------------------|
 |13-12-10-12-0-0-0-0-8-7-5-0-10-8-7-0-12-10-8-0-|
 |-----------------------------------------------|
 |-----------------------------------------------|
 |-----------------------------------------------|

pm.................................
 
 |--------------------16-15-13----------------------------|
 |-----------------------------16-15-13-15-13-12----------|
 |13-12-10-12-0-0-0-0----------------------------13-12-10-|
 |--------------------------------------------------------|
 |--------------------------------------------------------|
 |--------------------------------------------------------|

pm..................
4/4 time
 
 |-------------------------------------------------|
 |-------------------------------------------------|
 |13-12-10-----------------------------------------|
 |---------13-12-10-12-10-9------------------------|
 |--------------------------11-10-8-10~~~~~~~~~~~~~|
 |-------------------------------------------------|

SOLO 1
======
5/4 time 7/8 time
Gtr.I
 
 |------------------------|----------------------16-|
 |------------------------|-------------------------|
 |----13-------------13---|13h14p13p11-13-----------|
 |11-----11---11--11---11-|---------------11---11---|
 |------------------------|-------------------------|
 |------------------------|-------------------------|

pm pm pm pm pm
5/4 time
 
 |---16-16/15----15-15/16-------------|
 |------------------------------------|
 |------------------------------13----|
 |11----------11----------11-11----11-|
 |------------------------------------|
 |------------------------------------|

pm pm... pm
 
 |--------------------------|
 |--------------------------|
 |14-------12---12-13~~~~~~~|
 |---11-11------------------|
 |--------------------------|
 |--------------------------|

pm...
 
 |//16---14-13-14-16-14-13----------------------------------------------|
 |-------------------------15-14-12-14-15-14-12-------------------------|
 |----------------------------------------------14-13-11-10-11-13-11-10-|
 |----------------------------------------------------------------------|
 |----------------------------------------------------------------------|
 |----------------------------------------------------------------------|

7/8 time 5/4 time
 
 |---------------------------------------------|---------------------------------------|
 |---------------------------------------------|---------------------------------------|
 |---------------------------------------------|---------------------------------------|
 |12-11-9-11-12-11-9---------------------------|--------------2---------////////|------|
 |-------------------12-11-9-11-9-8------------|-------------2---------////////|-|
 |----------------------------------10-9-7-9-7-|9~~~~~~~~~~~// ------------------------|

Gtr.II under solo[Eb]
 
 /---------------------------------play 2x-------------------------------------\

5/4 time 7/8 time 5/4 time
 
 |--------------------|--------------|--------------------|--------------------|
 |--------------------|--------------|--------------------|--------------------|
 |--------------------|--------------|--------------------|--------------------|
 |6-4-6-----6-4-6-----|6-4-6---7-6-4-|6-4-6-----6-4-6-----|6-4-6/5---4---3---0-|
 |4-4-4-4-x-4-4-4-4-4-|4-4-4-x-4-4-4-|4-4-4-4-x-4-4-4-4-4-|4-4-4/5---4---3---0-|
 |--------------------| -------------|--------------------|--------------------|

pm pm... pm
VERSE 2
=======
 
 /-----------------------play four times------------------------\-|
 |------------------------------|---------------------------------|
 |------------------------------|---------------------------------|
 |------------------------------|---------------------------------|
 |------------------------------|---------------------------------|
 |----~~---------------------|---~~-------------------------|
 |0-----------0-----1p0-1p0h1h4-|0-----------0------0-0-0---0-0---|

pm..........
 
 /-----------------------play four times------------------------\-|
 |------------------------------|---------------------------------|
 |------------------------------|---------------------------------|
 |------------------------------|---------------------------------|
 |------------------------------|---------------------------------|
 |----~~---------------------|---~~-------------------------|
 |0-----------0-----1p0-1p0h1h4-|0-----------0------0-0-0---0-0---|

pm..........
BRIDGE
======
 
 /----------------------------play 2x----------------------------------\

6/8 time 4/4 time
 
 |---------------------|------------------------|----------------------|
 |---------------------|------------------------|----------------------|
 |---------------------|------------------------|----------------------|
 |---------------------|5h6p5p3-5---5h6p5p3-5-6-|--5---3---------------|
 |---------------------|------------------------|----------6---5---3---|
 |3--3--3--3--3--3--3--|------------------------|----------------------|

pm...................
CHORUS
======
fm Db C7 fm Eb/G
 
 |----------------|----------------|----------------|----------------|
 |----------------|----------------|----------------|----------------|
 |----------------|----------------|----------------|----------------|
 |------------6---|----------------|5---------------|----------------|
 |3-----------4-44|4-444-444-444-44|3-333-xx----3---|------------6---|
 |1-111-111-11----|----------------|--------4-3-1-11|1-111-111-113---|

pm........ pm................. pm....... pm.............
______________________________
Ab Bb |1. |
 
 |----------------|----------------|----------------|------------------------------|
 |----------------|----------------|----------------|------------------------------|
 |----------------|----------------|----------------|6-5-3-------------------------|
 |------------3---|----------------|5---------------|------6-5-3-5-3-2-------------|
 |6-----------1-11|1-111-111-111-11|3-333-333-333-33|------------------4-3-1-------|
 |4-444-444-44----|----------------|----------------|------------------------4-3-1-|

pm........ pm................. pm............
______________________________ _________________
|1. ||2. |
 
 |------------------------------||-----------------|
 |------------------------------||-----------------|
 |6-5-3-------------------------||2----------------|
 |------6-5-3-5-3-2-------------||0------------/10\|
 |------------------4-3-1-------||0----------------|
 |------------------------4-3-1-||-----------------|

MAIN PART
=========
5/4 time
 
 |-----------------------------------------------|
 |-----------------------------------------------|
 |13-12-10-12-0-0-0-0-8-7-5-0-10-8-7-0-12-10-8-0-|
 |-----------------------------------------------|
 |-----------------------------------------------|
 |-----------------------------------------------|

pm.................................
7/8 time
 
 |--------------------------------------|
 |--------------------15-13-12----------|
 |13-12-10-12-0-0-0-0----------13-12-10-|
 |--------------------------------------|
 |--------------------------------------|
 |--------------------------------------|

pm......
5/4 time
 
 |-----------------------------------------------|
 |-----------------------------------------------|
 |13-12-10-12-0-0-0-0-8-7-5-0-10-8-7-0-12-10-8-0-|
 |-----------------------------------------------|
 |-----------------------------------------------|
 |-----------------------------------------------|

pm.................................
 
 |--------------------16-12-13----------------------------|
 |-----------------------------16-15-13-15-13-12----------|
 |13-12-10-12-0-0-0-0----------------------------13-12-10-|
 |--------------------------------------------------------|
 |--------------------------------------------------------|
 |--------------------------------------------------------|

pm.................
5/4 time
 
 |-----------------------------------------------|
 |-----------------------------------------------|
 |13-12-10-12-0-0-0-0-8-7-5-0-10-8-7-0-12-10-8-0-|
 |-----------------------------------------------|
 |-----------------------------------------------|
 |-----------------------------------------------|

pm.................................
7/8 time
 
 |--------------------------------------|
 |--------------------15-13-12----------|
 |13-12-10-12-0-0-0-0----------13-12-10-|
 |--------------------------------------|
 |--------------------------------------|
 |--------------------------------------|

pm......
5/4 time
 
 |-----------------------------------------------|
 |-----------------------------------------------|
 |13-12-10-12-0-0-0-0-8-7-5-0-10-8-7-0-12-10-8-0-|
 |-----------------------------------------------|
 |-----------------------------------------------|
 |-----------------------------------------------|

pm.................................
 
 |--------------------16-12-13----------------------------|
 |-----------------------------16-15-13-15-13-12----------|
 |13-12-10-12-0-0-0-0----------------------------13-12-10-|
 |--------------------------------------------------------|
 |--------------------------------------------------------|
 |--------------------------------------------------------|

pm.................
4/4 time
 
 |---------------------------------------------------|
 |---------------------------------------------------|
 |13-12-10-------------------------------------------|
 |---------13-12-10-12-10-9--------------------------|
 |--------------------------11-10-8-10---------------|
 |---------------------------------------------------|

PRE SOLO
========
12/8 time
 
 |------------------|-----------------|------------------|-------------|
 |------------------|-----------------|------------------|-------------|
 |------------------|-----------------|------------------|-------------|
 |------------------|-----------------|----------------3-|-------------|
 |3~~~~~3-5-6~~~~~~~|-----------1~~~~~|3~~~~3-5-6~~~~6---|-------------|
 |------------------|1~~~~1-3-4~~-----|------------------|6~~~~4~~~~~~~|
 |------------------|-----------------|------------------|-------------|
 |------------------|-----------------|------------------|-------------|
 |------------------|-----------------|------------------|-------------|
 |------------------|-----------------|----------------3-|-------------|
 |3~~~~~~3-5-6~~~~~~|-----------1~~~~~|3~~~~3-5-6~~~~6---|-------------|
 |------------------|1~~~~1-3-4~------|------------------|3~~~~~~~~~~~~|
 |------------------||----------------------|
 |------------------||----------------------|
 |------------------||----------------------|
 |------------------||----------------------|
 |------------------||-------------3///15h19|
 |4----3-4-1--------||----------------------|

SOLO 2
======
Gtr.I 4/4 time
 
 |-----------------------------------------------------------------|
 |-----------------------------------------------------------------|
 |--------------------------------------15h17-21p17p15p------------|
 |-----------------------------------------------------------------|
 |22p19-22p19p15p-23p19-23p19p18ph19-22-----------------22p19p15h19|
 |-----------------------------------------------------------------|

T T T T T T T
 
 |------------15h18-20p18p15----------------15h18-21-18p15-----------|
 |-------------------------------------------------------------------|
 |---15h17-21----------------21p17p15h18-21----------------21p18p15//|
 |-------------------------------------------------------------------|
 |22-----------------------------------------------------------------|
 |-------------------------------------------------------------------|

T T T T T T T
 
 |-----------12h15-18p15p12p------------------------------------------------------|
 |--------------------------------------------------------------------------------|
 |//12h15-18-----------------18p15p12p----------------12h15-18p15p12p-------------|
 |--------------------------------------------------------------------------------|
 |-------------------------------------19p16p13h16-19-----------------------------|
 |--------------------------------------------------------------------18p12h15-18-|

T T T T T T T T
 
 |---------------------------12h15-18-----------------------|
 |----------------------------------------------------------|
 |---------12h15-18----------------------------12h15-18-0---|
 |----------------------------------------------------------|
 |----------------------------------------------------------|
 |12h15-18----------12h15-18----------12h15-18--------------|

T T T T T T
 
 |---------------------------|
 |------14-------------------|
 |//////------\\\\-----------|
 |----------------12-15-11---|
 |---------------------------|
 |---------------------------|

b>>>>>>>1/2\ (1)
 
 |--------------------|19---\\\\\\16p13----------|
 |---------------20\\\|-----------------14-------|
 |11--------//18------|--------------------13----|
 |--------------------|--------------------------|
 |--------------------|--------------------------|
 |--------------------|--------------------------|
 |---------------------------------------|
 |---------------------------------------|
 |12---//--------------------------------|
 |-------10h11p10----10-------------/////|
 |----------------13---------------------|
 |---------------------------------------|

Gtr.2 under Solo 2
 
 /-------------------------play 4x------------------------------\

4/4 time
 
 |-----------------------------|--------------------------------|
 |-----------------------------|--------------------------------|
 |-----------------------------|--------------------------------|
 |-----------------------------|--------------------------------|
 |----9------------------------|----9---------------------------|
 |8-----------8----8p6h8h9p8p6-|8-----------8-------8-8-8---8-8-|

pm..........
KEYBOARD SOLO
=============
 
 /-------------------------play 3x-------------------------\-|
 |----------------------------|------------------------------|
 |----------------------------|------------------------------|
 |----------------------------|------------------------------|
 |----7-----------------------|----7-------------------------|
 |6-----------6----p4h6h7p6p4-|6-----------6---6-6-6---6-6---|
 |----------------------------|------------------------------|

pm..........
 
 |----------------------------|------------------|---------------------|
 |----------------------------|------------------|---------------------|
 |----------------------------|------------------|---------------------|
 |----7-----------------------|------------------|---------------------|
 |6-----------6----p4h6h7p6p4-|6-------4-----6-4-|3----------////15\\\\|
 |----------------------------|------------------|---------------------|

CHORUS
======
fm Db C7 fm Eb/G
 
 |----------------|----------------|----------------|----------------|
 |----------------|----------------|----------------|----------------|
 |----------------|----------------|----------------|----------------|
 |------------6---|----------------|5---------------|----------------|
 |3-----------4-44|4-444-444-444-44|3-333-xx----3---|------------6---|
 |1-111-111-11----|----------------|--------4-3-1-11|1-111-111-113---|

pm........ pm................. pm....... pm.............
______________________________
Ab Bb |1. |
 
 |----------------|----------------|----------------|------------------------------|
 |----------------|----------------|----------------|------------------------------|
 |----------------|----------------|----------------|6-5-3-------------------------|
 |------------3---|----------------|5---------------|------6-5-3-5-3-2-------------|
 |6-----------1-11|1-111-111-111-11|3-333-333-333-33|------------------4-3-1-------|
 |4-444-444-44----|----------------|----------------|------------------------4-3-1-|

pm........ pm................. pm............
________________
|2. |
 
 |----------------|
 |----------------|
 |2---------------|
 |0-----------/10\|
 |0---------------|
 |----------------|

MAIN PART
=========
5/4 time
 
 |-----------------------------------------------|
 |-----------------------------------------------|
 |13-12-10-12-0-0-0-0-8-7-5-0-10-8-7-0-12-10-8-0-|
 |-----------------------------------------------|
 |-----------------------------------------------|
 |-----------------------------------------------|

pm.................................
7/8 time
 
 |--------------------------------------|
 |--------------------15-13-12----------|
 |13-12-10-12-0-0-0-0----------13-12-10-|
 |--------------------------------------|
 |--------------------------------------|
 |--------------------------------------|

pm......
5/4 time
 
 |-----------------------------------------------|
 |-----------------------------------------------|
 |13-12-10-12-0-0-0-0-8-7-5-0-10-8-7-0-12-10-8-0-|
 |-----------------------------------------------|
 |-----------------------------------------------|
 |-----------------------------------------------|

pm.................................
 
 |--------------------16-12-13----------------------------|
 |-----------------------------16-15-13-15-13-12----------|
 |13-12-10-12-0-0-0-0----------------------------13-12-10-|
 |--------------------------------------------------------|
 |--------------------------------------------------------|
 |--------------------------------------------------------|

pm.................
OUTRO
=====
7/8 time
Gtr.I
 
 |--------------------13-10-------------|---------------------16-13-------------|
 |--------------------------12----------|---------------------------15----------|
 |13-12-10-0-12-10-8-0---------13-10----|13-12-10-0-12-10-8-0----------16-13----|
 |-----------------------------------12-|------------------------------------15-|
 |--------------------------------------|---------------------------------------|
 |--------------------------------------|---------------------------------------|

|pm.................. |pm.................. |
| | |
|7/8 time | |
|Gtr.II | |
 
 |--------------------------------------|---------------------------------------|
 |--------------------------------------|---------------------------------------|
 |13-12-10-0-12-10-8-0-10-7-------------|--------0--------0-13-10---------------|
 |--------------------------9-----------|--------------------------12-----------|
 |----------------------------11--8-----|11-10-8---10-8-6-------------14-11-----|
 |----------------------------------10--|-----------------------------------13--|

pm.................. pm................
6/4 time
 
 |------------------------------------------------------|--------------------||
 |------------------------------------------------------|--------------------||
 |13-12-10-0-12-10-8-0-10-8-7-0-8-7-5-0-7-5-------------|6-------------------||
 |------------------------------------------8-6-5-------|6-------------------||
 |------------------------------------------------8-6-5-|4-------------------||
 |------------------------------------------------------|--------------------||

pm........................
THE END
Any corrections,comments or suggestions are welcome.

Important: The song above is NOT stored on the Chordie server. The original song is hosted at www.guitartabs.cc. Chordie works as a search engine and provides on-the-fly formatting. Chordie does not index songs against artists'/composers' will. To remove this song please click here.

Text color:
Chord color:
Chord grids: 
Font size:    
Page size: 

A C Eb F G
Rate #1 of 1 versions

Login - add to songbook

SHARE PAGE  




You need to log in to post comments