Guitar Tabs, Chords and Lyrics
Server problems seems to be fixed. Chordie has been experiencing problems with songs disappearing. These issues now seems to be fixed, but still verifying the fix. If you find anything strange, please email admin@chordie.com.


Out of the Ashes   Symphony X

 
 ---------------------------------

 


 (From The album Divine wings of tragedy)


 


 


 Transcribed & tabbed by Arnaud "Reckless Fable"


 e-mail : reckless@caramail.com


 web site : http://www.multimania.com/rfable/main.html


 


 Tablature explanation :


 

 
 ------------------------

 


 \ / : slide


 h : hammer


 p : pull-off


 b : bend


 br : bend and release


 ~ : vibrato


 pm : palm muting


 a.h : artificial harmonic


 


 Tune down 1 step : D G C F a D


 


 

 
 |--------------------------------------------------------------|
 |--------------------------------------------------------------|
 |--------------------------------------------------------------|
 |-5-------------------------------5----------------------------|
 |-3-3-3-3-3-3-3-3-3-3-3-3-3-3-3-3-3-3-3-3-3-3-3-3-3-3-3-3-3-3--|
 |--------------------------------------------------------------|

 


 pm........................... .........................


 


 

 
 |-----------------------------|
 |-----------------------------|
 |-----------------------------|
 |-----------------------------|
 |-5---3---1-----------4---5~--|
 |-------------2---3-----------|

 


 


 Intro rythm :(with pm)


 


 

 
 ||-----------------------------------------------------------------------------------|
 ||-----------------------------------------------------------------------------------|
 ||-----------------------------------------------------------------------------------|
 ||-------------------------------------------------4---0---5-------------------------|
 ||-5---------------------------3---5---0---5---7-------------------6---5---3---6---0-|
 ||-3---3---3---3---3---5---6-----------------------------------3---------------------|
 |---------------------------||
 |---------------------------||
 |---------------------------||
 |---------------------------||
 |-4---5---6---5---3---------||
 |---------------------6---5-||
 |---------------------------------------------------------------------------------|
 |---------------------------------------------------------------------------------|
 |---------------------------------------------------------------------------------|
 |---------------------------------------------------------------------------------|
 |-----6-----------5-------4---5---------------------------------------------------|
 |-3-------3---5-------3-----------6---3---5~---6-7---0---6---7---3---0---2~-------|
 |-----------------------------------------------------------------------------------|
 |-----------------------------------------------------------------------------------|
 |-------------------------------------------------3-------4-------------------------|
 |-4---------------------------2---4-------4---6-------4-----------5---4---2---5-----|
 |-2---2---2---2---2---4---5-----------4-----------------------2-------------------4-|
 |-----------------------------------------------------------------------------------|
 |---------------------------------------------------------------------------------|
 |---------------------------------------------------------------------------------|
 |---------------------------------------------------------------------------------|
 |-3---4---5---4---2------------------5---------------------5----------------------|
 |---------------------5---4-----2----------2-----4~----2---------2----4--5~-------|
 |---------------------------------------------------------------------------------|

 


 


 Intro lead :


 (X2)


 

 
 ||-10-6---------------------8---------8-10----------10-12-14-15-14-10-12-14-15-10-|
 ||------8---8-----7-8-10-11---11-8-11------10-12-14-------------------------------|
 ||--------7---7-9-----------------------------------------------------------------|
 ||--------------------------------------------------------------------------------|
 ||--------------------------------------------------------------------------------|
 ||--------------------------------------------------------------------------------|
 |----10-15-13-11-------18-17-15-17-12-14-15-14-15-17-15-14----------------------||
 |-11-------------15-13-------------------------------------16-15-13-------------||
 |-------------------------------------------------------------------15-14-12-11-||
 |-------------------------------------------------------------------------------||
 |-------------------------------------------------------------------------------||
 |-------------------------------------------------------------------------------||
 |-------------------------------------9h10p9h10p9-----------6---------------5-|
 |----11-15-11-16-11-16-11----11-15-11---------------10-8-10---8-6-8-5-8-6-8---|
 |-12----------------------12----------------------7---------------------------|
 |-----------------------------------------------------------------------------|
 |-----------------------------------------------------------------------------|
 |-----------------------------------------------------------------------------|
 |---------------3-----------------------------------15----------------------14----|
 |-6-5-6-3-6-5-6---5-3-5-2h3p2h3p2h3p2------19-17-19----17-15-17-14-17-15-17----15-|
 |---------------------------------------16----------------------------------------|
 |---------------------------------------------------------------------------------|
 |---------------------------------------------------------------------------------|
 |---------------------------------------------------------------------------------|
 |-------------------12----------------12-15-14-12-------|
 |-14-15-12-15-14-15----14-12-14-11-14-------------15-14-|
 |-------------------------------------------------------|
 |-------------------------------------------------------|
 |-------------------------------------------------------|
 |-------------------------------------------------------|
 |----10----------------------------12----------12-14----------14-16-18-19-18-14-16-18-|
 |-12----12----12-------11-12-14-15----15-12-15-------14-16-18-------------------------|
 |----------11----11-13----------------------------------------------------------------|
 |-------------------------------------------------------------------------------------|
 |-------------------------------------------------------------------------------------|
 |-------------------------------------------------------------------------------------|

 


 | |


 | |


 

 
 |-------------------------------------------------------------------------------------|
 |-------------------------------------------------------------------------------------|
 |----------------11-9--11-7--11-6--11----11-7--11-6--11----11-----11----11-----11--10-|
 |-9--9--9--9--9-----------------------9-----------------9------8-----6----------------|
 |--------------------------------------------------------------------------9----------|
 |-------------------------------------------------------------------------------------|
 |-19-14----14-19-17-15-------22-21-19-21-16-18-19-18-19-21-19-18----------------------|
 |-------15-------------19-17-------------------------------------20-19-17-------------|
 |-------------------------------------------------------------------------19-18-16-15-|
 |-------------------------------------------------------------------------------------|
 |-------------------------------------------------------------------------------------|
 |-------------------------------------------------------------------------------------|

 


 | |


 | |


 

 
 |-------------------------------------------------------------------------------------|
 |------------------12--12-11-12-8--12----12----12-9--12-11-12-14----------------------|
 |-11----------------------------------11----10-------------------12-11-9--------------|
 |------9--9--9--9---------------------------------------------------------12-11-9--8--|
 |-------------------------------------------------------------------------------------|
 |-------------------------------------------------------------------------------------|

 


 


 This part contains other guitar harmonies


 

 
 |------------------------------------------------------------|
 |------20--------------------20------------------------------|
 |-16--------16----18~---16--------16----18--19~--------------|
 |------------------------------------------------------------|
 |------------------------------------------------------------|
 |------------------------------------------------------------|

 


 | |


 | |


 

 
 |------------------------------------------------------------|
 |------------------------------------------------------------|
 |------12---------------------12-----------------------------|
 |-9----------9----11~----9---------9----11--12~--------------|
 |------------------------------------------------------------|
 |------------------------------------------------------------|

 


 


 Verse 1:


 


 

 
 |-----------------------------------------------------------------|
 |-----------------------------------------------------------------|
 |-----------------------------------------------------------------|
 |-0h2-----------------------------0h2---3p2---0h2-----------------|
 |-----0-0-0-0-0-0-0-0-0-0-0-0-0-0-----0-----0-----0-0-0-0-0-0-0-0-|
 |-----------------------------------------------------------------|
 |-------------------------------------------------------------|
 |-------------------------------------------------------------|
 |---------------------------------------------------3---------|
 |-0h2-----------------------------0h2---3p2---0h2---1---------|
 |-----0-0-0-0-0-0-0-0-0-0-0-0-0-0-----0-----0-----0---4p0h4p0-|
 |-------------------------------------------------------------|
 |-----------------------------------------------------------------|
 |-----------------------------------------------------------------|
 |-----------------------------------------------------------------|
 |-0h2-----------------------------0h2---3p2---0h2-----------------|
 |-----0-0-0-0-0-0-0-0-0-0-0-0-0-0-----0-----0-----0-0-0-0-0-0-0-0-|
 |-----------------------------------------------------------------|
 |-------------------------------------------------------------|
 |-------------------------------------------------------------|
 |---------------------------------------------------3---------|
 |-0h2-----------------------------0h2---3p2---0h2---1---------|
 |-----0-0-0-0-0-0-0-0-0-0-0-0-0-0-----0-----0-----0---4p1h4p1-|
 |-------------------------------------------------------------|

 


 


 Pré-chorus:


 


 

 
 ||-------------------------------------------||
 ||-------------------------------------------||
 ||-------------------------------------------||
 ||---------------------------------------2h4-||
 ||-4--2-4----------4----2-4------------4-----||
 ||--------3--0-2-3-----------2-3-0-2-3-------||

 


 pm.......... ................


 


 

 
 |------------------------------------|
 |------------------------------------|
 |------------------------------------|
 |------------------------------6-----|
 |-2----------3-------------x-x-4-----|
 |-0----------1-----------------------|

 


 


 Chorus:(with pm except powerchords)


 


 

 
 |----------------------------------------------------------------------------|
 |----------------------------------------------------------------------------|
 |----------------------------------------------------------------------------|
 |-2--------------6--------------6--------------4-----------------------------|
 |-0--0-0-0-0-0-0-3--3-3-3-3-3-3-4--4-4-4-4-4-4-2--2-2-2-2-2-2-4--------------|
 |-------------------------------------------------------------2--2-2-2-2-2-2-|
 |-----------------------------------------------|
 |-----------------------------------------------|
 |-----------------------------------------------|
 |----------------6------------------------------|
 |-6--------------4--4-4-4-4-4-4-4-4-4-4-4-4-4-4-|
 |-4--4-4-4-4-4-4--------------------------------|
 |----------------------------------------------------------------------------|
 |----------------------------------------------------------------------------|
 |----------------------------------------------------------------------------|
 |-2--------------6--------------6-----------4--2-----------------------------|
 |-0--0-0-0-0-0-0-3--3-3-3-3-3-3-4--4-4-4-4--2--0--0-0-0-0-0-0-4--------------|
 |-------------------------------------------------------------2--2-2-2-2-2-2-|
 |-----------------------------------------------------------|
 |-----------------------------------------------------------|
 |-----------------------------------------------------------|
 |-------------------------------------------------6--6--6---|
 |-6--------------6--------------------------------6--6--6---|
 |-3--3-3-3-3-3-3-4--4-4-4-4-4-4-4-4-4-4-4-4-4-4---4--4--4---|

 


 


 Transition rhythm:


 


 

 
 |-----------4-------------------------------|
 |-----------4-------------------------------|
 |-----------5-------------------------------|
 |-5-----------------5-----------------------|
 |-3-----------------3-----------------------|
 |---------------------------1------4--------|

 


 


 Transition :


 [1]  

 
 |-13h15---11h15p11---------------------------------------------------------/18b~--|
 |------------------13--------13----15----16----15----13----15----16p15p13---------|
 |---------------------12--12----12----12----12----12----12----12------------------|
 |---------------------------------------------------------------------------------|
 |---------------------------------------------------------------------------------|
 |---------------------------------------------------------------------------------|

 


 


 [1]  

 
 |-rb-15-18b--15h18p15------------------------------13h17p13-19p16-----------------|
 |---------------------16------------13----------13----------------17--------------|
 |------------------------15-17~--14----14----14----------------------16-----------|
 |-----------------------------------------15----------------------------18--------|
 |--------------------------------------------------------------------------19-14~-|
 |---------------------------------------------------------------------------------|

 


 


 Verse 2:


 


 

 
 |-----------------------------------------------------------------|
 |-----------------------------------------------------------------|
 |-----------------------------------------------------------------|
 |-0h2-----------------------------0h2---3p2---0h2-----------------|
 |-----0-0-0-0-0-0-0-0-0-0-0-0-0-0-----0-----0-----0-0-0-0-0-0-0-0-|
 |-----------------------------------------------------------------|
 |-------------------------------------------------------------|
 |-------------------------------------------------------------|
 |---------------------------------------------------3---------|
 |-0h2-----------------------------0h2---3p2---0h2---1---------|
 |-----0-0-0-0-0-0-0-0-0-0-0-0-0-0-----0-----0-----0---4p0h4p0-|
 |-------------------------------------------------------------|
 |---------------------------------------------------|
 |---------------------------------------------------|
 |---------------------------------------------------|
 |-2--2--2--------2--2--2--------2--2--2-------------|
 |-0--0--0----0-0-0--0--0----0-0-0--0--0----0-0-0-0--|
 |---------------------------------------------------|

 


 pm. ... .......


 


 

 
 |-------------------------------------------------------------|
 |-------------------------------------------------------------|
 |---------------------------------------------------3---------|
 |-0h2-----------------------------0h2---3p2---0h2---1---------|
 |-----0-0-0-0-0-0-0-0-0-0-0-0-0-0-----0-----0-----0---4p1h4p1-|
 |-------------------------------------------------------------|

 


 


 Pré-chorus


 Chorus


 


 Solo rhythm :


 


 

 
 |--------------------------------------------------------|
 |--------------------------------------------------------|
 |--------------------------------------------------------|
 |--------------------------------------------------------|
 |-4----------4----------2--4---4----------4----5---5-----|
 |-2----0-2-3-2----0-2-3--------2----0-2-3-2----3---3-----|
 |--------------------------------------------------------------|
 |--------------------------------------------------------------|
 |--------------------------------------------------------------|
 |----------------------------------------------5-5-5-5-5-5-5-5-|
 |-4----------4----------2--4---4----------4----3-3-3-3-3-3-3-3-|
 |-2----0-2-3-2----0-2-3--------2----0-2-3-2--------------------|
 |--------------------------------------------------------|
 |--------------------------------------------------------|
 |--------------------------------------------------------|
 |--------------------------------------------------------|
 |-4----------4----------2--4---4----------4----5---5-----|
 |-2----0-2-3-2----0-2-3--------2----0-2-3-2----3---3-----|
 |------------------------------------------------|
 |------------------------------------------------|
 |------------------------------------------------|
 |------------------------------4---2-------------|
 |-4----------4----------2--4----------5--4--3----|
 |-2----0-2-3-2----0-2-3--------------------------|

 


 


 Solo:


 


 

 
 |-13-14-13-----13-14-13----------13-14-13-14-13----13-14-13----------13-14-13----|
 |----------14~----------15-14-15----------------15----------15-14-15----------15-|
 |--------------------------------------------------------------------------------|
 |--------------------------------------------------------------------------------|
 |--------------------------------------------------------------------------------|
 |--------------------------------------------------------------------------------|

 


 


 [1/2] [1/2] [1/2] [1/2]  

 
 |-13-14-16-14-13-----------16-14-13----------------------------------------------|
 |----------------15-13--13----------15-14-12--14b--14b-14b-14b-rb-p12\11h12p11~--|
 |--------------------------------------------------------------------------------|
 |--------------------------------------------------------------------------------|
 |--------------------------------------------------------------------------------|
 |--------------------------------------------------------------------------------|
 |-------12-14-15-14-12----------------------------------------------------|
 |-12-14----------------15-13-12-14-12-11----------------------------------|
 |----------------------------------------12-11-14-12-11-------------------|
 |-------------------------------------------------------14-12-11----------|
 |----------------------------------------------------------------14-13~---|
 |-------------------------------------------------------------------------|
 |-----------------------------------------------------/15-------18-15----20p15h20p15\|
 |-----------------------------------------------17-14-----17----------17-------------|
 |-----------------------------14----15----18-15--------------18----------------------|
 |-/12-11-/14-12-/16-14-/17-16----17----17--------------------------------------------|
 |------------------------------------------------------------------------------------|
 |------------------------------------------------------------------------------------|

 


 


 depbar T T T T T T


 

 
 |-15p12---------------------------------------------------------9h12h14p12p9---------|
 |-------13---------------------------------------------------------------------------|
 |----------12----------------9h11h15p11p9---------------9h11h15--------------15p11p9-|
 |-------------14---------------------------------------------------------------------|
 |----------------15-----9h13--------------16p13p9h13h16------------------------------|
 |------------------------------------------------------------------------------------|

 


 


 T T T T T T T T T depbar


 

 
 |-----------------------9h12h14p12p9-------15p12p9--------18p15p12---------------|
 |--------------------------------------------------------------------------------|
 |---------------9h11h15--------------15p11---------15p12-----------18p15p12h15---|
 |--------------------------------------------------------------------------------|
 |-16p13p9h13h16------------------------------------------------------------------|
 |--------------------------------------------------------------------------------|

 


 


 bar...................................................


 

 
 |-----------------------------------20p16h20p16\--------------11p8h11p8-----------|
 |------------------------------------------------21p16h21p16\-----------9---------|
 |-12-15p12\11--9--12-11p9h11~-\-------------------------------------------8-------|
 |---------------------------------------------------------------------------10----|
 |------------------------------------------------------------------------------11\|
 |---------------------------------------------------------------------------------|
 |--------------------------------------------------------|
 |--------------------------------------------------------|
 |--------------------------------------------------------|
 |-4----------4----------2--4---4----------4----5---5-----|
 |-2----0-2-3-2----0-2-3--------2----0-2-3-2----3---3-----|
 |--------------------------------------------------------|
 |--------------------------------------------------------------|
 |--------------------------------------------------------------|
 |----------------------------------------------5-5-5-5-5-5-5-5-|
 |-4----------4----------2--4---4----------4----3-3-3-3-3-3-3-3-|
 |-2----0-2-3-2----0-2-3--------2----0-2-3-2--------------------|
 |--------------------------------------------------------------|
 |--------------------------------------------------------|
 |--------------------------------------------------------|
 |--------------------------------------------------------|
 |-4----------4----------2--4---4----------4----5---5-----|
 |-2----0-2-3-2----0-2-3--------2----0-2-3-2----3---3-----|
 |--------------------------------------------------------|
 |------------------------------------------------|
 |------------------------------------------------|
 |------------------------------4---2-------------|
 |-4----------4----------2--4----------5--4--3----|
 |-2----0-2-3-2----0-2-3--------------------------|
 |------------------------------------------------|
 |---------------------------------------------------------------------------------|
 |-----------------------------------------7-5-4-8-7-5-4---------------------------|
 |-----------------------------------5-4-2---------------5-4-2---------5-4-2-------|
 |-4-4-4-4-4-4-4-4-------4-2-1-5-4-2---------------------------5-4-2-4-------5-4-2-|
 |-2-2-2-2-2-2-2-2-3-2-0-----------------------------------------------------------|
 |---------------------------------------------------------------------------------|

 


 pm..............................................................................


 


 a.h


 

 
 |-------------------------------------------|
 |-------------------------------------------|
 |-----4-2-----------------------------------|
 |-1-2-----5-4-2-1-----------1-2-4-5-6~------|
 |-----------------3-2-0-2-3-----------------|
 |-------------------------------------------|

 


 pm.........................


 


 Chorus(2X)


 


 Outro:


 


 

 
 |----------------------------------------------------------------------|
 |----------------------------------------------------------------------|
 |-8-6-5----------------------------------------------------------------|
 |-------7-6-4---------7-6-4-----------6-4-2-------2---6---6----\-------|
 |-------------7-6-4-6-------7-6-4-3-4-------6-4-3-0---3---4----\-------|
 |----------------------------------------------------------------------|


Important: The song above is NOT stored on the Chordie server. The original song is hosted at www.guitartabs.cc. Chordie works as a search engine and provides on-the-fly formatting. Chordie does not index songs against artists'/composers' will. To remove this song please click here.

This song is displayed as text-only. Transposing and tuning is only available for chordpro-songs.
Rate #1 of 2 versions

Login - add to songbook

SHARE PAGE  




You need to log in to post comments