Guitar Tabs, Chords and Lyrics
Server problems seems to be fixed. Chordie has been experiencing problems with songs disappearing. These issues now seems to be fixed, but still verifying the fix. If you find anything strange, please email admin@chordie.com.


The Divine Wings of Tragedy  Symphony X

THE DIVINE WINGS OF TRAGEDY (Bassline)
As recorded by Symphony X
(From the 1997 Album THE DIVINE WINGS OF TRAGEDY)
Transcribed by Linus "Mr.Gul" Abrahamson
Words by Romeo, Pinnella, Miller, Allen Music by Romeo, Pinnella, Miller
Gtr I (D G C F) - 'Untitled'
At the Four Corners of...
[4/4] Gtr I
Wx36
 
 |---------|
 |---------|
 |---------|
 |---------|

In the Room of Thrones
Q=123
|-3-| [3/4] |-3-|[5/4]
q q q E E E q q E E E 4x q q E E E E E E
 
 ||-----------------|--------------||-|--------------------|
 ||o----------------|-------------o||-|--------------------|
 ||o-5--5--5--5-5-5-|-5--5--5-5-5-o||-|-5--5--5-5---5-5-5--|
 ||-----------------|--------------||-|--------------------|

[4/4] [3/4] [4/4] [3/4]  
 
 |-3-| |-3-| |-3-|

q q q E E E q q E E E q q q E E E q q q
 
 |----------------|-------------|----------------|----------|
 |----------------|-------------|----------------|----------|
 |-5--5--5--5-5-5-|-5--5--5-5-5-|-5--5--5--5-5-5-|-5--5--5--|
 |----------------|-------------|----------------|----------|

[4/4] [5/4] |-3-| |-3-|
E E E E q E E E E E E q q q q q q q q E E
 
 |----------------|---------------|-----------------|
 |----------------|---------------|-----------------|
 |-5-5---5-5--5-5-|---5-5-5-5--5--|-5-5-5-5-5-5-5-5-|
 |----------------|---------------|-----------------|

1.,2.,3.,4. 5.
[4/4] [3/4] [4/4]  
 
 |-3-| |-3-| |-3-|

q q q E E E q q E E E q q q E E E
 
 ||-----------------|--------------||-|----------------|
 ||o----------------|-------------o||-|----------------|
 ||o----------------|-------------o||-|----------------|
 ||--4--4--4--4-4-4-|-4--4--4-4-4--||-|-4--4--4--4-4-4-|

[6/4]  
 
 |-3-| |-3-| |-3-| |-3-|

q q q E E E 4x q q q E E E E E E E E E
 
 ||------------------||-|----------------------------|
 ||o----------------o||-|----------------------------|
 ||o----------------o||-|----------------------------|
 ||--4--4--4--4-4-4--||-|-4--4--4--4-4-4-4-4-4-4-4-4-|

Q.=120
12/8
Q E E E E Q E E E E Q E E E E Q E E E E
 
 ||------------------------|------------------------||
 ||o-----------------------|-----------------------o||
 ||o-----------------------|-----------------------o||
 ||--6--6-6-4-7-6--6-6-4-7-|-6--6-6-4-7-6--6-6-4-7--||

[E] [E] [E] [E] [E] [E] [E] [E] [E] [E] [E] [E] [E] [E] [E] [E] [E] [E] [E] [E] [E] [E] [E] [E]  
 
 ||--------------------------|-------------------------|
 ||o-------------------------|-------------------------|
 ||o-6-6-6-6-4-7-6-6-6-6-4-7-|-6-6-6-6-4-7-6-6-6-6-4-7-|
 ||--------------------------|-------------------------|

[E] [E] [E] [E] [E] [E] [E] [E] [E] [E] [E] [E] [E] [E] [E] [E] [E] [E] [E] [E] [E] [E] [E] [E]  
 
 |-------------------------|--------------------------||
 |-------------------------|-------------------4-----o||
 |-6-6-6-6-4-7-6-6-6-6-4-7-|-6-6-6-6-6-6-4-6-7---7-4-o||
 |-------------------------|--------------------------||

Q=178
[4/4] Q E E E E E E E E E E E E E E E E E E E E E E
 
 |----------------|-----------------|-----------------|
 |----------------|-----------------|-----------------|
 |-6--6-6-6-6-6-6-|-6-6-6-6-6-6-6-6-|-6-6-6-6-6-6-6-6-|
 |----------------|-----------------|-----------------|

[E] [E] [E] [E] [E] [E] [E] [E] [E] [E] [E] [E] [E] [E] [E] [E] [E] [E] [E] [E] [E] [E] [E] [E]  
 
 |-----------------|-----------------|-----------------|
 |-----------------|-----------------|-----------------|
 |-4-4-4-4-4-4-4-4-|-3-3-3-3-3-3-3-3-|-2-2-2-2-2-2-2-2-|
 |-----------------|-----------------|-----------------|

E E E E E E E E E E E E E E E E E E E E E E E E E E E E E E E E 4x
 
 ||------------------|-----------------|-----------------|-------------------||
 ||o-----------------|-----------------|-----------------|------------------o||
 ||o-------3-------2-|---------------3-|-------2---------|-------3----------o||
 ||--0-1-0---0-1-0---|-0-1-0-1-0-1-0---|-0-1-0---0-1-0-1-|-0-1-0---3-2-2-1---||

[E] [E] [E] [E] [E] [E] [E] [E] [E] [E] [E] [E] [E] [E] [E] [E] [E] [E] [E] [E] [E] [E] [E] [E]  
 
 ||------------------|-----------------|-----------------|
 ||o-----------------|-----------------|-----------------|
 ||o---4---5-------4-|---5-------4---5-|-------4---5-----|
 ||--2---2---2-3-2---|-2---2-3-2---2---|-2-3-2---2---2-3-|

1. 2.
E E E E E E E E [6/4] E E E S S E E E E E E E E
 
 |------------------||-|---------------------------|
 |-----------------o||-|-------2-4-5-4-2-----------|
 |---4---5---------o||-|---4-------------5-4-2-----|
 |-2---2---5-4-4-3--||-|-2---2-----------------5-3-|

[4/4] E E E E E E E E E E E E E E E E E E E E E E E E E E E E E E E E 4x
 
 ||------------------|-----------------|-----------------|------------------||
 ||o-----------------|-----------------|-----------------|-----------------o||
 ||o---6---7-------6-|---7-------6---7-|-------6---7-----|---6---7---------o||
 ||--4---4---4-5-4---|-4---4-5-4---4---|-4-5-4---4---4-5-|-4---4---7-6-6-5--||

Q=130
[5/4] >
q E E Q q E E q E E Q q E E H. +H
 
 ||-------------------|-------------------||-||----------------|
 ||o------------------|------------------o||-||----------------|
 ||o------------------|------------------o||-||----------------|
 ||--6----6----6--6-6-|-6----6----6--6-6--||-||-0-------(0)----|

A Gathering of Angels
W W [3/4] W W
 
 |------------|------------|--------|--------|
 |------------|------------|--------|--------|
 |------------|------------|--------|--------|
 |------------|------------|--------|--------|

5/4 3/4 9/8
W W W W
 
 |------------|------------|--------|------|
 |------------|------------|--------|------|
 |------------|------------|--------|------|
 |------------|------------|--------|------|

3/4 4/4 3/4 9/8
W W W W
 
 ||---------|----------|--------|-------||
 ||o--------|----------|--------|------o||
 ||o--------|----------|--------|------o||
 ||---------|----------|--------|-------||

[3/4] [4/4]  
[E] [E] [E] [E] [E] [E] [E] [E] [E] [E] [E] [E] [E] [E]  
 
 ||--16------18-14----|----12----16-18-14----19-|
 ||o----14---------14-|-12----14----------17----|
 ||o------------------|-------------------------|
 ||--------0----------|-------------------------|

3/4 9/8
[E] [E] [E] [E] [E] [E] [E] [E] [E] [E] [E] [E] [E] [E] [E]  
 
 |-16------18-14----|-16-19------------------19---||
 |----14---------14-|-------17-19---19-16-17-----o||
 |------------------|----------------------------o||
 |-------0----------|-------------0---------------||

3/4 4/4 3/4 9/8
H. +W H. +W +E
 
 |---------|------------|---------|----------------|
 |---------|------------|---------|----------------|
 |---------|------------|---------|----------------|
 |-0-------|-(0)--------|-3-------|-(3)--------(3)-|

3/4 4/4 3/4 9/8
H. +W H. +H. E E E
 
 |---------|------------|---------|----------------|
 |---------|------------|---------|----------------|
 |-0-------|-(0)--------|---------|----------------|
 |---------|------------|-0-------|-(0)------0-0-0-|

3/4 4/4 3/4 9/8
[E] [E] [E] [E] [E] [E] [E] [E] [E] [E] [E] [E] [E] [E] [E] [E] [E] [E] [E] [E] [E] [E] [E] [E] [E] [E] [E] [E] [E]  
 
 |-------------|-----------------|-------------|-------------------|
 |-------------|-----------------|-------------|-------------------|
 |-------------|-----------------|-------------|-------------------|
 |-0-0-0-0-0-0-|-0-0-0-0-0-0-0-0-|-3-3-3-3-3-3-|-3-3-3-3-3-3-3-3-3-|

3/4 4/4 3/4 9/8
[E] [E] [E] [E] [E] [E] [E] [E] [E] [E] [E] [E] [E] [E] [E] [E] [E] [E] [E] [E] [E] [E] [E] [E] [E] [E] [E] [E] [E]  
 
 |-------------|-----------------|-------------|-------------------|
 |-------------|-----------------|-------------|-------------------|
 |-0-0-0-0-0-0-|-0-0-0-0-0-0-0-0-|-------------|-------------------|
 |-------------|-----------------|-0-0-0-0-0-0-|-0-0-0-0-0-0-0-0-0-|

[4/4] E E E E E E q E E E E E E E E
 
 ||-----------------|-----------------|
 ||o----------------|-----------------|
 ||o-7-5---7-5------|---7-5---------5-|
 ||------7-----7-0--|-------7-0-5-7---|

E E E E E E q [5/4] E E E E S S E E E E E 4x
 
 |----------------|------------------------||
 |----------------|-----------------------o||
 |---5---7-5------|-------5-7-5-----7-5-9-o||
 |-0---0-----7-0--|---0-7-------7-8--------||

[4/4] H. Q +W H. Q +W
 
 |------------|------------|------------|--------|
 |------------|------------|------------|--------|
 |-3-------3--|-(3)--------|-3-------5--|-(5)----|
 |------------|------------|------------|--------|

H. Q +W W E E E E E E E E
 
 |------------|------------|----------|-----------------|
 |------------|------------|----------|---4-2-----------|
 |------------|------------|----------|-------4-2-------|
 |-1-------1--|-(1)--------|-2--------|-2---------5-2-0-|

The Wrath Divine
Q=135
5/8
q Q. W W W
 
 |---------|-------|-------|------|
 |---------|-------|-------|------|
 |-2-------|-------|-------|------|
 |---------|-------|-------|------|

[E] [E] [E] [E] [E] [E] [E] [E] [E] [E] [E] [E] [E] [E] [E] [E] [E] [E] [E] [E]  
 
 ||------------|-----------|-----------|------------||
 ||o-----------|-----------|-----------|-----------o||
 ||o-2-0-2-0-2-|-2-0-2-0-2-|-2-0-2-0-2-|-2-0-2-0-2-o||
 ||------------|-----------|-----------|------------||

[E] [E] [E] [E] [E] [E] [E] [E] [E] [E] [E] [E] [E] [E] [E] [E] [E] [E] [E] [E]  
 
 ||------------|------------||-||------------|------------||
 ||o-----------|-----------o||-||o-----------|-----------o||
 ||o-5-3-5-3-5-|-5-3-5-3-5-o||-||o-2-0-2-0-2-|-2-0-2-0-2-o||
 ||------------|------------||-||------------|------------||

$
7/8
[E] [E] [E] [E] [E] [E] [E] [E] [E] [E] [E] [E] [E] [E] [E] [E] [E] [E] [E] [E] [E] [E] [E] [E] [E] [E] [E] [E]  
 
 ||----------------|---------------|---------------|----------------|
 ||o---------------|---------------|---------------|----------------|
 ||o---------------|---------------|---------------|----------------|
 ||--2-0-2-0-2-2-0-|-2-0-2-2-0-2-0-|-2-0-2-0-2-0-2-|-2-0-2-0-2-2-0--|

E E E E E E E E E E E E E E E E E E E E E Q S S E E E E
 
 |---------------|---------------|---------------|-----------------||
 |---------------|---------------|---------------|----------------o||
 |---------------|---------------|---------------|-4--4-5-4-2-----o||
 |-2-0-2-0-2-2-0-|-0-2-0-2-0-2-0-|-2-0-2-0-2-2-0-|------------5-4--||

[4/4] Q. E Q. E Q. E E E E E Q. E Q. E Q. E E E E E
 
 |---------------|----------------|---------------|----------------|
 |---------------|----------------|---------------|----------------|
 |-5----5-7----7-|-8----8-8-7-5-4-|-5----5-7----7-|-8----8-8-7-5-4-|
 |---------------|----------------|---------------|----------------|

1. 2.
To Coda
E E E E E E E E E E E E E E E E E E E E H +W
 
 ||------------------|------------------||-|--------------|--------|
 ||o-----------------|-----------------o||-|--------------|--------|
 ||o-----------------|-----------------o||-|--------------|--------|
 ||--2-2-0-2-4-4-2-4-|-5-5-5-5-5-4-2-1--||-|-5-5-4-5-7----|-(7)----|

5/8
Wx4 E E E E E E E E E E E E E E E E E E E E
 
 |---------||------------|-----------|-----------|------------||
 |---------||o-----------|-----------|-----------|-----------o||
 |---------||o-7-5-7-5-7-|-7-5-7-5-7-|-7-5-7-5-7-|-7-5-7-5-7-o||
 |---------||------------|-----------|-----------|------------||

D.S. al Coda
[4/4] |-3-| [3/4] |-3-|
E E E E E E E E E E q q q E E E q q E E E
 
 ||------------|------------||-|----------------|-------------|
 ||o-----------|-----------o||-|----------------|-------------|
 ||o-7-5-7-5-7-|-7-5-7-5-7-o||-|-7--7--7--7-7-7-|-7--7--7-7-7-|
 ||------------|------------||-|----------------|-------------|

&
[4/4] W E S S Q E S S Q E E E E H E S S Q E S S Q
 
 ||-----------|-------------------|---------5----|-------5--------5--|
 ||o----------|-------------------|--------------|-------------------|
 ||o----------|---7-7-7----5-5-5--|-3-3---3------|---3-3------3-3----|
 ||--0--------|-------------------|--------------|-------------------|

E E E E H E S S Q E S S Q E E E E H E S S H.
 
 |---------3----|-------3--------3--|--------------|--------------||
 |--------------|-------------------|--------------|-------------o||
 |-1-1---1------|---1-1------1-1----|-0-0---0-0----|---0-0-0-----o||
 |--------------|-------------------|--------------|--------------||

H +E E E E E E Q q q W +H Q Q
 
 |---------------------|-----------14--16--|-17--------|-(17)----21--19--|
 |-14----(14)-14-17-16-|----16-14----------|-----------|-----------------|
 |---------------------|-17----------------|-----------|-----------------|
 |---------------------|-------------------|-----------|-----------------|

e S S Q +E S S Q +E S S Q +E E E E
 
 |-18-18-15----------15-12-----|------12-9----------12-14-15-|
 |----------17--(17)-------14--|-(14)------11--(11)----------|
 |-----------------------------|-----------------------------|
 |-----------------------------|-----------------------------|
 |--3---| |--3---|

H.. +S S S Q. +S S S Q Q
 
 |-14---------(14)-12h14p|=12----(12)-11h12p11--------|
 |-----------------------|----------------------12----|
 |-----------------------|----------------------------|
 |-----------------------|----------------------------|

Q E E E E q E E E E q q
 
 |-------------------|----------------19--|
 |-------------------|-14------17-14------|
 |------------14-----|----14--------------|
 |-0--15-12------15--|--------------------|

H E E E E E E E E E E Q
 
 |-21----24-23---21-|---24---23---21-19--|
 |------------------|--------------------|
 |------------------|--------------------|
 |------------------|--------------------|

H H H Q Q W H H
 
 |-15----18----|-------14--15--|-17--------|-21----23----|
 |-------------|-17------------|-----------|-------------|
 |-------------|---------------|-----------|-------------|
 |-------------|---------------|-----------|-------------|

W +W +Q H. +W +W
 
 |-24--------|-(24)--------|-(24)--21-------|-(21)--------|-(21)----|
 |-----------|-------------|----------------|-------------|---------|
 |-----------|-------------|----------------|-------------|---------|
 |-----------|-------------|----------------|-------------|---------|

W +W W +H. E E 3x W +W
 
 ||-----------|------------|----------|---------------||----------|--------|
 ||o----------|------------|----------|--------------o||----------|--------|
 ||o----------|------------|-0--------|-(0)----------o||----------|--------|
 ||--0--------|-(0)--------|----------|----------3-2--||-0--------|-(0)----|

Bringer of the Apocalypse
Q=155
10/8
E E E E E E q Q E E E E E E S S S S S S S S
 
 ||--------------------|-----------------------------|
 ||o-------------------|---------------------3h5-----|
 ||o-5-5-5-5-5-5-6--6--|-5-5-5-5-5-5-----3h5-----3h4-|
 ||--------------------|-------------3h5-------------|

6/8 12/8
E E E E E E q Q E E E E E E E E E E E E E E E E E E 4x
 
 |-------------------|-------------|---------------------------||
 |-------------------|-------------|-3-3-3--------------------o||
 |-5-5-5-5-5-5-6--6--|-5-5-5-5-5-5-|-------4-4-4-------6-6-6--o||
 |-------------------|-------------|-------------3-3-3---------||

[5/4] E E E E E E q Q E E E E E E q Q 4x
 
 ||--------------------|--------------------||
 ||o-------------------|-------------------o||
 ||o-------------------|-------------------o||
 ||--2-2-0-2-2-0-3--3--|-2-2-0-2-2-0-0--0---||

E E E E E E q Q E E E E E E q Q 4x
 
 ||--------------------|--------------------||
 ||o-------------------|-------------------o||
 ||o-5-5-3-5-5-3-6--6--|-5-5-3-5-5-5-3--3--o||
 ||--------------------|--------------------||

The Prophet's Cry
Q=156
[4/4] E E E E E E E E E E E E E E Q E E E E E E E E E E E E E E Q
 
 |-----------------|----------------|-----------------|-----------------|
 |-----------------|----------------|-----------------|-----------------|
 |-5-7---------5-7-|---------5-7-8--|-5-7---------5-7-|---------5-7-6---|
 |-----0-0-0-0-----|-0-0-0-0--------|-----0-0-0-0-----|-0-0-0-0---------|

E E E E E E E E E E E E E E Q E E E E E E E E E E E S S E E Q
 
 |-----------------|----------------|-----------------|-------------------|
 |-----------------|----------------|-----------------|-------------------|
 |-5-7---------5-7-|---------5-7-8--|-----------------|---------------6---|
 |-----0-0-0-0-----|-0-0-0-0--------|-0-6-5-0-5-4-0-4-|-3-0-0-0-0-0-0-----|

$$
E E E E E E E E E E E E E E Q E E E E E E E E E E E E E E Q
||------------------|----------------|-----------------|-----------------|
||o-----------------|----------------|-----------------|-----------------|
||o-5-7---------5-7-|---------5-7-8--|-5-7---------5-7-|---------5-7-6---|
||------0-0-0-0-----|-0-0-0-0--------|-----0-0-0-0-----|-0-0-0-0---------|
To Dbl. Coda
E E E E E E E E E E E E E E Q E E E E E E E E E E E S S E E Q
|-----------------|----------------|-----------------|--------------------||
|-----------------|----------------|-----------------|-------------------o||
|-5-7---------5-7-|---------5-7-8--|-----------------|---------------6---o||
|-----0-0-0-0-----|-0-0-0-0--------|-0-6-5-0-5-4-0-4-|-3-0-0-0-0-0-0------||
Q=142
E E Q E E Q E E Q E E Q E E Q E E Q Q. E +Q Q
||----------------|---------------|---------------|----------------|
||o---------------|---------------|---------------|----------------|
||o---------------|------------4--|---------------|-------------3--|
||--3-3----3-3----|-3-3----3-3----|-3-3----3-3----|-5----6-(6)-----|
E E Q E E Q E E Q E E Q E E Q E E Q Q. E +Q Q
|---------------|---------------|---------------|----------------|
|---------------|---------------|---------------|----------------|
|---------------|---------------|---------------|-3----4-(4)--6--|
|-6-6----6-6----|-6-6----6-6-0--|-6-6----6-6----|----------------|
E E Q E E Q E E Q E E Q E E Q E E Q Q. E +Q Q
|---------------|---------------|---------------|-----------------|
|---------------|---------------|---------------|-----------------|
|-4-4----4-4----|-4-4----4-4----|-4-4----4-4----|-6----7-(7)--9---|
|---------------|------------3--|---------------|-----------------|
E E Q E E Q E E Q E E Q E E Q E E Q
|---------------|---------------|---------------|
|---------------|---------------|---------------|
|---------------|---------------|---------------|
|-0-0----0-0----|-0-0----0-0----|-6-6----6-6----|
1. 2.
D.S.S. al Dbl. Coda
Q. E +Q Q E E E E E E E E
|-----------------||-|-------------------|
|----------------o||-|-------------------|
|----------------o||-|-------------------|
|-6----5-(5)--4---||-|-6-6-6-5-5-5-4-4---|
Q=156
&&
q Q Q E E W q E E Q q E E Q H
|--------------|----------||--------------|-------------|
|--------------|----------||--------------|-------------|
|--------------|----------||--------------|-------------|
|-3--------3-3-|----------||-6----6----6--|-6-6---------|
q Q Q Q +W q E E Q q E E E E H
|-------------|------------||--------------|----------------|
|-------------|------------||--------------|----------------|
|-4--------4--|-(4)--------||--------------|----------------|
|-------------|------------||-0----0----0--|-0-0---0-12\----|
Q=150
|-3-| |-3-| |-3-|
H E E Q +Q E E E E E E E E E H E E Q E Q. E Q.
||--------------|------------------------|-------------|-----------------||
||o-------------|------------------------|-------------|----------------o||
||o----------4--|-(4)--------------------|----------4--|---7------------o||
||--3----3-3----|------4-4-4-7-7-7-4-4-4-|-3----3-3----|----------6------||
E E E E E E E E E E E E S S S S S S S S E E E E E E Q
||------------------|-------------------------|----------------|
||o-----------------|-------------------------|----------------|
||o-----------------|-------------------------|----------------|
||--3-2---2---2-3-2-|---2---2-3-3-3-3-3-3-3-3-|-3-2---2---2----|
1.
S S S S S S S S S S S S q
|----------------8-10-11------------||-|
|---------7-9-10---------10-12-11--o||-|
|-----6-9--------------------------o||-|
|-5-8-------------------------------||-|
2.
T T T T
|-----5-----| |-----5-----| |----5-----|
S S S S S S S S S S S S S S S Q
|-21p18h21p18p15-18p15h18p15p12-15p12h15p12p9----|
|------------------------------------------------|
|------------------------------------------------|
|------------------------------------------------|
E E E E E E E E E E E E S S S S S S S S
||------------------|-------------------------|
||o-----------------|-------------------------|
||o-----------------|-------------------------|
||--6-5---5---5-6-5-|---5---5-6-6-6-6-6-6-6-6-|
1. 2.
|---3---|
E E E E E E Q Q Q Q Q Q E E E E E Q. +W
|----------------|------------------||-|----------------|--------|
|----------------|-------------7\--o||-|----------------|--------|
|----------------|----------0------o||-|----------------|--------|
|-6-5---5---5----|---------------------||-|-6-5---5---5----|-(5)----|
Q=150
|-3-| |-3-| |-3-| |-3-|
q q q E E E q q E E E q q q E E E q q E E E
|----------------|-------------|----------------|-------------|
|----------------|-------------|----------------|-------------|
|-3--3--3--3-3-3-|-3--3--3-3-3-|-3--3--3--3-3-3-|-3--3--3-3-3-|
|----------------|-------------|----------------|-------------|
Q=135
|-3-|
W +W W +H Q Q Q
||-----------|------------|----------|---------------||
||o----------|------------|----------|--------7-7-7-o||
||o----------|------------|-0--------|-(0)----------o||
||--0--------|-(0)--------|----------|---------------||
W +W W +H. E E W +W
|----------|------------|----------|--------------|----------|--------|
|----------|------------|----------|--------------|----------|--------|
|----------|------------|-0--------|-(0)----------|----------|--------|
|-0--------|-(0)--------|----------|----------3-2-|-0--------|-(0)----|
Q=160
10/8
E E E E E E E E E E E E E E E E E E E E 4x
||--7-------4-----2-----|-7-------4-----2------||
||o---6-0-6---4-0---3-0-|---6-0-6---4-0---3-0-o||
||o---------------------|---------------------o||
||----------------------|----------------------||
Q=135
q E E E E q E E E E E E E E E E 4x W +W
||----------------|----------------------||-||----------|--------|
||o---------------|---------------------o||-||----------|--------|
||o---------------|---------------------o||-||-2--------|-(2)----|
||--0----0---1-0--|---0---0---0---3---1--||-||----------|--------|
Q=145
7/8
|---------------|---------------|---------1-----|----------------|
|-----2---------|-----2---------|-----2-----2---|-----2----------|
|-5-3---3-0-2-3-|-5-3---3-0-2-3-|-5-3---3-----3-|-5-3---3-5-5-5--|
|---------------|---------------|---------------|----------------|
6/8 7/8
|-------------|-5-4-2-------|---------------|---------------|
|-2-2-2-6-6-6-|-------6-4-2-|-----2---------|-----2---------|
|-------------|-------------|-5-3---3-0-2-3-|-5-3---3-0-2-3-|
|-------------|-------------|---------------|---------------|
E E E E E E E E E E E E Q q Q S S E E E E Q Q.
|---------1---4-|---------1----|-4---------------|---9----------|
|-----2-----2---|-----4-2------|-------9-12-10-9-|-6------------|
|-5-3---3-------|-5-3----------|-----------------|--------------|
|---------------|--------------|-----------------|--------------|
|---------------|---------------|---------1-----|
|-----2---------|-----2---------|-----2-----2---|
|-5-3---3-0-2-3-|-5-3---3-0-2-3-|-5-3---3-----3-|
|---------------|---------------|---------------|
9/8
q q E E E E E q q E E E E E q Q E E q E
||------------------|------------------||-||------------------||
||o---------5-------|---------5-------o||-||o----------------o||
||o-0--0--7---6-0-7-|-0--0--7---6-0-7-o||-||o-0-------0-0----o||
||------------------|------------------||-||------------------||
q q q E E E E E E q q q E E E E Q
|----------------------|---------------------|
|----------5-4---4-5---|----------5-4---4-5--|
|-3--3--3------3-------|-3--3--3------3------|
|--------------------6-|---------------------|
9/8
q q E E E E E q q E E E E E
||----------1-------|---------1--------||
||o-------3---2---3-|-------3---2---3-o||
||o-1--1--------1---|-1--1--------1---o||
||------------------|------------------||
|-3-| |-3-| |-3-| |-3-|
q q q E E E q q E E E q q q E E E q q E E E
|----------------|-------------|----------------|-------------|
|----------------|-------------|----------------|-------------|
|-1--1--1--1-1-1-|-1--1--1-1-1-|-1--1--1--1-1-1-|-1--1--1-1-1-|
|----------------|-------------|----------------|-------------|
Q=150
3/4
|----------|----------|-------------|
|----------|----------|-------------|
|----------|----------|-------7-6-5-|
|-3-3------|-3-3------|-3-3---------|
|-3-| |-3--| |-3--| |--3--|
|-------------|-------------------9-8-12-15--|
|-------------|------------8-7-11------------|
|-------7-6-5-|-----7-6-10-------------------|
|-3-3---------|-6-9--------------------------|
3/4
||--------------|--------------||-||--------------|--------------||
||o-------------|-------------o||-||o-------------|-------------o||
||o-------5-4-3-|-------5-4-3-o||-||o-------8-7-6-|-------8-7-6-o||
||--1-1---------|-1-1----------||-||--4-4---------|-4-4----------||
|-3-| |-3-| |-3-| |-3-|
q q q E E E q q E E E q q q E E E q q E E E 3x
||-----------------|-------------|----------------|---------------||
||o----------------|-------------|----------------|--------------o||
||o----------------|-------------|----------------|--------------o||
||--1--1--1--2-2-2-|-1--1--0-0-0-|-1--1--1--2-2-2-|-1--1--0-0-0---||
|-3-| |-3-| |-3-| |-3-|
q q q E E E q q E E E q q q E E E q q E E E q
||-----------------|--------------||-|----------------|----------------|
||o----------------|-------------o||-|----------------|----------------|
||o----------------|-------------o||-|----------------|----------------|
||--4--4--4--5-5-5-|-4--4--3-3-3--||-|-4--4--4--5-5-5-|-4--4--3-3-3-4--|
Q. E +Q Q +W Q. E +Q Q +W
||-----------------|------------|----------------|---------||
||o------2-(2)-----|------------|----------------|--------o||
||o-4-----------3--|-(3)--------|-4-----------2--|-(2)----o||
||-----------------|------------|------4-(4)-----|---------||
E S S S S E S S S S Q S S S S S S S S S S S S S S S S
||-------------------------|----------------------------------|
||o-----------2-2-2-2-2----|----------------------------------|
||o-4-4-4-4-4-----------3--|----------------------------------|
||-------------------------|-0h2-2-2-2-2-0h2-2-2-2-2-0h2-2-2--|
Q E E +E E Q S S S S E S S S S E S S E
|-----------------|----------------------------||
|-----------------|---------------------------o||
|-4--4---------2--|---------2---------2-----2-o||
|------4-(4)-4----|-1-1-1-1---1-1-1-1---1-1----||
S S S S S S S S S S S S S S E E S S S S S S S S S S S S S S
||--------------------------------|--------------------------------||
||o-------------------------------|-------------------------------o||
||o-7-7-7-7-7-7-7-7-7-7-7-7-7-7-8-|-7-7-7-7-7-7-7-8-7-5---7-5-----o||
||--------------------------------|---------------------8-----8-7--||
S S S S S S S S S S S S S S E E S S S S S S S S S S S S S S
||--------------------------------|--------------------------------||
||o-------------------------------|-------------------------------o||
||o-4-4-4-4-4-4-4-4-4-4-4-4-4-4-5-|-4-4-4-4-4-4-4-5-4-----4-------o||
||--------------------------------|-------------------7-5---7-5-4--||
S S S S S S S S S S S S S S E E S S S S S S S S S S S S S S
||--------------------------------|--------------------------------||
||o-------------------------------|-------------------------------o||
||o-7-7-7-7-7-7-7-7-7-7-7-7-7-7-8-|-7-7-7-7-7-7-7-8-7-5---7-5-----o||
||--------------------------------|---------------------8-----8-7--||
S S S S S S S S S S S S S S E E S S S S S S S S S S S S S S
|-------------------------------|-------------------------------|
|-------------------------------|-------------------------------|
|-4-4-4-4-4-4-4-4-4-4-4-4-4-4-5-|-4-4-4-4-4-4-4-5-4-----4-------|
|-------------------------------|-------------------7-5---7-5-4-|
S S S S S S S S S S S S S S E E S S S S S S S S S S S S S S
|-------------------------------|-------------------------------|
|-------------------------------|-------------------------------|
|-4-4-4-4-4-4-4-4-4-4-4-4-4-4-5-|-4-4-4-4-4-4-4-4-4-4-4-4-4-4-4-|
|-------------------------------|-------------------------------|
12/8
|-------------------------||-------------------------|
|-------------3-3-3-------||-6-6-6-------9-9-9-------|
|-5-5-5-------------1-1-1-||-------4-4-4-------7-7-7-|
|-------3-3-3-------------||-------------------------|
Q. Q. Q. Q. Q. Q. Q. Q.
|---------------------||---------------------|
|---------------------||------1---------4----|
|------0---------3----||-1---------4---------|
|-0---------3---------||---------------------|
Q=145
6/8 12/8
>
H. +W. +W. +W.
|---------|----------------|----------------|--------|
|---------|----------------|----------------|--------|
|-4-------|-(4)------------|-(4)------------|-(4)----|
|---------|----------------|----------------|--------|
3/4 11/8 12/8
Wx7 Wx4 W
|----------|---------------|------|
|----------|---------------|------|
|----------|---------------|------|
|----------|---------------|------|
Q. Q. H H Q. +Q Q. +Q Q. Q.
|-----------|-----------|---------------------|------------|
|-3---------|-3---------|-3----(3)------------|-3----------|
|------3----|------3----|-----------3----(3)--|------------|
|-----------|-----------|---------------------|------1-----|
Q=150
11/8
Q E E E H. Q E E E E E E E E E
||-------------------|----------------------|
||o------5-----------|------5-----3-----5---|
||o----5---5---------|----5---5-1---1-3---3-|
||--3--------3-------|-3--------------------|
Q E E E H. Q E E E E E E E E E
|------------------|----------5-2----------||
|------5-----------|------5-------3-------o||
|----5---5---------|----5---5-------3-----o||
|-3--------3-------|-3----------------6-5--||
Q=75
12/8
H. H. H. H.
|-----------------|---------------|
|-----------------|---------------|
|-----------------|---------------|
|-0-------0-------|-0-------0-----|
Q=150
11/8
Q E E E H. Q E E E E E E E E E
|---------------------|--------------------------|
|-------10------------|-------10------8-----10---|
|----10----10---------|----10----10-6---6-8----8-|
|-8-----------8-------|-8------------------------|
Q E E E H. Q E E E E E E E E E
|---------------------|-------------10-7------------|
|-------10------------|-------10---------8----------|
|----10----10---------|----10----10--------8--------|
|-8-----------8-------|-8--------------------11-10--|
Q=80
12/8
W. H. E. E. E. E.
|---------------|---------------------|
|---------------|---------6--4--------|
|---------------|---------------7--6--|
|-4-------------|-4-------------------|
Q=150
H.. E H. E E H. Q +H.. E H. Q
||--------------|-------------|------------|--------------|--------------|
||o-------------|-------------|------------|--------------|--------------|
||o-4---------4-|-4-------0-2-|-3-------3--|-(3)--------6-|-7------------|
||--------------|-------------|------------|--------------|---------0----|
+E E Q +Q. E H. Q +H. E E Q. E Q E E
|------------------|------------|--------------|----------------|
|------------------|------------|--------------|----------------|
|----------------7-|-6-------6--|-(6)------6-7-|-9----9-9----9--|
|-(0)-0-0--(0)-----|------------|--------------|-----------9----|
Q. E Q E E Q. E +Q Q +W Q. E +Q Q +W
|---------------|----------------|-------------||-|----------------|--------|
|---------------|----------------|------------o||-|----------------|--------|
|-7----7-7----7-|-5----5-(5)--5--|-(5)--------o||-|-6----6-(6)--6--|-(6)----|
|-----------7---|----------------|-------------||-|----------------|--------|
Paradise Regained
Q=138
W. +H. +W +H.
|------------------------|---------------------|
|------------------------|---------------------|
|------------------------|---------------------|
|-0-------------(0)------|-(0)--------(0)------|
W W 3x Wx4
||---------------------|-----------------||-|--------|
||o--------------------|----------------o||-|--------|
||o--------------------|----------------o||-|--------|
||---------------------|-----------------||-|--------|
W +H. H W +H.
|------------------------|-------------------|
|------------------------|-------------------|
|------------------------|-0--------(0)------|
|-0--------(0)------3----|-------------------|
W +H. H W +H.
|------------------------|-----------------|
|------------------------|-----------------|
|-------------------3----|-5--------(5)----|
|-0--------(0)-----------|-----------------|
W +H. H W +H.
|------------------------|-------------------|
|------------------------|-------------------|
|------------------------|-0--------(0)------|
|-0--------(0)------3----|-------------------|
W +W W +W
|----------|------------|----------|--------|
|----------|------------|----------|--------|
|-3--------|-(3)--------|-5--------|-(5)----|
|----------|------------|----------|--------|
3/4 4/4 3/4 9/8
H. +W +H. +W +E
|---------|------------|----------|----------------|
|---------|------------|----------|----------------|
|---------|------------|----------|----------------|
|-0-------|-(0)--------|-(0)------|-(0)--------(0)-|
3/4 4/4 3/4 9/8
+H. +W +H. +W +E
|----------|------------|----------|----------------|
|----------|------------|----------|----------------|
|----------|------------|----------|----------------|
|-(0)------|-(0)--------|-(0)------|-(0)--------(0)-|
3/4 4/4 3/4 9/8
H. +W H. +W +E
|---------|------------|---------|----------------|
|---------|------------|---------|----------------|
|---------|------------|---------|----------------|
|-0-------|-(0)--------|-3-------|-(3)--------(3)-|
3/4 4/4 3/4 9/8
H. +W H. +H. E E E
|---------|------------|---------|----------------|
|---------|------------|---------|----------------|
|-0-------|-(0)--------|---------|----------------|
|---------|------------|-0-------|-(0)------0-0-0-|
3/4 4/4 3/4 9/8
|-------------|-----------------|-------------|-------------------|
|-------------|-----------------|-------------|-------------------|
|-------------|-----------------|-------------|-------------------|
|-0-0-0-0-0-0-|-0-0-0-0-0-0-0-0-|-3-3-3-3-3-3-|-3-3-3-3-3-3-3-3-3-|
3/4 4/4 3/4 9/8
|-------------|-----------------|-------------|-------------------|
|-------------|-----------------|-------------|-------------------|
|-0-0-0-0-0-0-|-0-0-0-0-0-0-0-0-|-------------|-------------------|
|-------------|-----------------|-0-0-0-0-0-0-|-0-0-0-0-0-0-0-0-0-|
W H. W H. W H.
|----------|---------|----------|---------|----------|-------|
|----------|---------|----------|---------|----------|-------|
|----------|---------|----------|-0-------|-1--------|-3-----|
|-0--------|-2-------|-3--------|---------|----------|-------|
|-3-| |-3-|
q q q E E E q q E E E q H
||-----------------|--------------||-|---------*|
||o----------------|-------------o||-|---------*|
||o-5--5--5--5-5-5-|-5--5--5-5-5-o||-|-5-------*|
||-----------------|--------------||-|---------*|
Duration Legend
---------------
W - whole; H - half; Q - quarter; E - 8th; S - 16th; T - 32nd; X - 64th; a - acciaccatura
+ - note tied to previous; . - note dotted; .. - note double dotted
Uncapitalized letters represent notes that are staccato (1/2 duration)
Irregular groupings are notated above the duration line
Duration letters will always appear directly above the note/fret number it represents the
duration for. Duration letters with no fret number below them represent rests. Multi-
bar rests are notated in the form Wxn, where n is the number of bars to rest for. Low
melody durations appear below the staff
Tablature Legend
----------------
h - hammer-on
p - pull-off
b - bend
pb - pre-bend
r - bend release (if no number after the r, then release immediately)
/\ - slide into or out of (from/to "nowhere")
s - legato slide
S - shift slide
- natural harmonic
[n] - artificial harmonic
n(n) - tapped harmonic
~ - vibrato
tr - trill
T - tap
TP - trem. picking
PM - palm muting
\n/ - tremolo bar dip; n = amount to dip
\n - tremolo bar down
n/ - tremolo bar up
/n\ - tremolo bar inverted dip
= - hold bend; also acts as connecting device for hammers/pulls
- volume swell (louder/softer)
x - on rhythm slash represents muted slash
o - on rhythm slash represents single note slash
Misc Legend
-----------
| - bar
|| - double bar
||o - repeat start
o|| - repeat end
*| - double bar (ending)
: - bar (freetime)
$ - Segno
& - Coda
Tempo markers - = BPM(8/16=s8/s16), where s8 = swing 8ths, s16 = swing 16ths

Important: The song above is NOT stored on the Chordie server. The original song is hosted at www.guitartabs.cc. Chordie works as a search engine and provides on-the-fly formatting. Chordie does not index songs against artists'/composers' will. To remove this song please click here.

Text color:
Chord color:
Chord grids: 
Font size:    
Page size: 

E
Rate #1 of 1 versions

Login - add to songbook

SHARE PAGE  




You need to log in to post comments