Guitar Tabs, Chords and Lyrics
Major upgrade!! After one year development the new version of Chordie is now online! Please give feedback.


Dreaming   System of a Down

 
 ----------------------------------------------------------------------------

 


 Dreaming - System of a Down


 

 
 ----------------------------------------------------------------------------

 


 


 Tabbed By : _godsmack_


 e-mail: pearson1991@hotmail.com


 


 Tuning: Standard


 [Sbavo is a beast] 


 


 Intro/Verse [x7] [x7]


 

 
 G|-----------||-------------||----------||-------------||------------------|
 D|-----------||.-----------.||----------||.-----------.||------------------|
 A|----3----3-||.--5-4-3-2--.||----3---3-||.--5-4-3-2--.||---3-333----------|
 E|--3----3---||-------------||--3---3---||-------------||-3----------------|

 


 


 Chorus


 

 
 G|----|-----|-----|---------|-----|-----|-----|---------|
 D|----|-----|-----|---------|-----|-----|-----|---------|
 A|-3--|-----|--4--|---------|--3--|-----|--4--|---------|
 E|----|--1--|-----|--0--1-3-|-----|--1--|-----|--0--1-3-|

 


 


 Verse [x7] [x7]


 

 
 G||-------------||----------||-------------||----------|
 D||.-----------.||----------||.-----------.||----------|
 A||.--5-4-3-2--.||----3---3-||.--5-4-3-2--.||---3-333--|
 E||-------------||--3---3---||-------------||-3--------|

 


 


 Chorus


 

 
 G|----|-----|-----|---------|-----|-----|-----|---------|
 D|----|-----|-----|---------|-----|-----|-----|---------|
 A|-3--|-----|--4--|---------|--3--|-----|--4--|---------|
 E|----|--1--|-----|--0--1-3-|-----|--1--|-----|--0--1-3-|

 


 


 Bridge [x4]


 

 
 G||-------------|---------------|---------------|--------565--353------||
 D||.------------|---------------|---------------|------------------65-.||
 A||.------------|--4--4--4-4--4-|--6--6--6-6--6-|--3--3---------------.||
 E||-1--1--1-1-1-|---------------|---------------|----------------------||
 G|---------------|---------------|---------------|---|
 D|---------------|---------------|---------------|---|
 A|---------------|--4--4--4-4--4-|--6--6--6-6--6-|-3-|
 E|--1--1--1-1--1-|---------------|---------------|---|

 


 


 Verse [x7] [x7]


 

 
 G||-------------||----------||-------------||----------|
 D||.-----------.||----------||.-----------.||----------|
 A||.--5-4-3-2--.||----3---3-||.--5-4-3-2--.||---3-333--|
 E||-------------||--3---3---||-------------||-3--------|

 


 


 Chorus


 

 
 G|----|-----|-----|---------|-----|-----|-----|---------|
 D|----|-----|-----|---------|-----|-----|-----|---------|
 A|-3--|-----|--4--|---------|--3--|-----|--4--|---------|
 E|----|--1--|-----|--0--1-3-|-----|--1--|-----|--0--1-3-|

 


 


 Outro x3


 

 
 G|---------------|---------------|---------------|------|
 D|---------------|---------------|---------------|------|
 A|---------------|--4--4--4-4--4-|--6--6--6-6--6-|-3-4-6|
 E|--1--1--1-1--1-|---------------|---------------|------|
 G|-------------------------------------------------------------------------|
 D|-------------------------------------------------------------------------|
 A|------------------------------------3-3333\------------------------------|
 E|-000000000000000000000000000000---3--------------------------------------|


Important: The song above is NOT stored on the Chordie server. The original song is hosted at www.guitartabs.cc. Chordie works as a search engine and provides on-the-fly formatting. Chordie does not index songs against artists'/composers' will. To remove this song please click here.

This song is displayed as text-only. Transposing and tuning is only available for chordpro-songs.
Rate #1 of 4 versions

Jango Player

Login - add to songbook

SHARE PAGE  



You need to log in to post comments