Guitar Tabs, Chords and Lyrics
Major upgrade!! After one year development the new version of Chordie is now online! Please give feedback.


Lonely Day  System of a Down

Chords.
Am - 002210
Dm - 000231
C - 032010
E7 - 020100
[F]E [-]- [133211]022100
G - 320003
Pattern for strumming.
[Am]  
 
 e |------------------------------|
 B |----------1-------------------|
 G |--------2---2-----------------|
 D |------2-------2---------------|
 A |----0-------------------------|
 E |------------------------------|

[Dm]  
 
 e |------------1-----------------|
 B |----------3---3---------------|
 G |-------2--------2-------------|
 D |----0-------------------------|
 A |------------------------------|
 E |------------------------------|

[C]  
 
 e |------------------------------|
 B |------------1-----------------|
 G |---------0-----0--------------|
 D |------2----------2------------|
 A |----3-------------------------|
 E |------------------------------|

[E7]  
 
 e |------------------------------|
 B |------------0-----------------|
 G |---------1----1---------------|
 D |------0---------0-------------|
 A |----2-------------------------|
 E |------------------------------|

Verse 1 :
[Am]Such a [Dm]lonely day, a[C]nd its m[E7]ine
[Am]The most [Dm]lonliest day of my [C]life [E7]
[Am]such a [Dm]lonely day, s[C]hould be b[E7]anned
[Am]Its a [Dm]day that I cant s[C]tand [E7]
Chorus 1 :
( Tab from: http://www.guitartabs.cc/tabs/s/system_of_a_down/lonely_day_acoustic_crd.html )
[Am]The most [Dm]lonliest day of my l[C]ife [E7]
[Am]the most [Dm]lonliest day of my l[C]ife [E7]
Verse 2:
[Am]such a [Dm]lonely day,[C] shouldn't [E7]exist
[Am]its a [Dm]day that i'll never m[C]iss [E7]
[Am]such a [Dm]lonely day, and its [C]mine[E7]
[Am]the most [Dm]lonliest day of my l[C]ife [E7]
Chorus 2 :
[F]and if you [E]go, I [G]wanna go[Am] with you
[F]and if you [E]die, I[G] wanna d[Am]ie with you
t[Dm]ake your hand a[E7]nd walk away
Solo
End :
[Am]The most [F]lonliest day of my [C]life [E7]
[Am]The most [F]lonliest day of my [C]life[E7]
[Am]The most [Dm]lonliest day of my [C]life[E7]
[Am]Such a [Dm]lonely day, a[C]nd its m[E7]ine
[Am]Its a [Dm]day that I'm glad I su[C]rvived [E7]
- Anthony C.

Important: The song above is NOT stored on the Chordie server. The original song is hosted at www.guitartabs.cc. Chordie works as a search engine and provides on-the-fly formatting. Chordie does not index songs against artists'/composers' will. To remove this song please click here.

Text color:
Chord color:
Chord grids: 
Font size:    
Page size: 

Am C Dm E E7 F G
Rate #1 of 15 versions

Jango Player

Login - add to songbook

SHARE PAGE  




You need to log in to post comments