Guitar Tabs, Chords and Lyrics
Major upgrade!! After one year development the new version of Chordie is now online! Please give feedback.


Shimmy   System of a Down

 
 |-----------------------------------------------------------------|
 |-----------------------------------------------------------------|
 |-----------------------------------------------------------------|
 |-(2)-2---(2)-2---(2)-2---(2)-2---(2)-2---(2)-2---(2)-2---(2)-2---|
 |-----------------------|
 |-----------------------| X3
 |-----------------------|
 |-3p2-22-22--7p6-66-66--|
 |---------------------|
 |---------------------| X1
 |---------------------|
 |-3p2-22-22--66666----|

 


 


 Verse: [0:2o Min]


 


 

 
 |------------------------------------------------|
 |------------------------------------------------|
 |-----------------------------7-8-7-5-3-2--------|
 |-3-2-0-2-3-2-0-2-3-2-0-2-3-2-------------7-6----|
 |--------------------------------------------------|
 |---------------------------------6-7-6h7p6--------|
 |-----------------------------7-8-----------8-7-5--|
 |-3-2-0-2-3-2-0-2-3-2-0-2-3-2----------------------|
 |------------------------------------------------|
 |------------------------------------------------|
 |-----------------------------7-8-7-5-3-2--------|
 |-3-2-0-2-3-2-0-2-3-2-0-2-3-2-------------7-6----|
 |------------------------------------------------------------------|
 |---------------------------------6-7-6h7p6------------------------|
 |-----------------------------7-8-----------8-7-8-7-5-3-2-3-2------|
 |-3-2-0-2-3-2-0-2-3-2-0-2-3-2---------------------------------7-6--|

 


 


 Chorus #1: [0:39 Min]


 

 
 |--------|
 |--------| X3
 |--------|

 


 |-22/66--|


 


 

 
 |-----------|
 |-----------| X1
 |-----------|

 


 |-22/66666--|


 


 Chorus #2: [1:o6 Min](RepeaT TwiCe)


 


 

 
 |--------|
 |--------| X3
 |--------|

 


 |-22/66--|


 


 

 
 |-----------|
 |-----------| X1
 |-----------|

 


 |-22/6-66---|


 


 Bass Fill: [1:23 Min]


 


 

 
 |---------------|-------------|--------|
 |---------------|-------------|--------|
 |---------------|-------------|--------|
 |-2---2---2---2-|-2-2-2-2-2-2-|-22222--|

 


 


 InTerlude: [1:35 Min] (The GuiTar Plays This Part The First CouPle Of Times)


 


 

 
 |------------------|
 |------------------| X2
 |------------------|
 |------------------|
 |------------------|
 |------------------| X4
 |-7-8-7-5-3-2------|
 |-------------7-6--|

 


 


 OuTro: [1:43 Min]


 


 

 
 |------------------------------|
 |------------------------------| X4
 |------------------------------|
 |-3-2-0-2-3-2-0-2-3-2-0-2-3-2--|


Important: The song above is NOT stored on the Chordie server. The original song is hosted at www.guitartabs.cc. Chordie works as a search engine and provides on-the-fly formatting. Chordie does not index songs against artists'/composers' will. To remove this song please click here.

This song is displayed as text-only. Transposing and tuning is only available for chordpro-songs.
Rate #1 of 2 versions

Jango Player

Login - add to songbook

SHARE PAGE  



You need to log in to post comments