Guitar Tabs, Chords and Lyrics
Major upgrade!! After one year development the new version of Chordie is now online! Please give feedback.


Vicinity of Obscenity   System of a Down

 
 |--------|
 |--------|
 |--------|
 |--------|

 


 


 Main Riff


 S S S S S S S S S S S S S S S S S S S S S S S S S S S S S S S S


 

 
 ||----------------------------------|----------------------------------||
 ||o---------------------------------|---------------------------------o||
 ||o---------------------------------|---------------------------------o||
 ||--0-6-8-6-0-5-6-5-0-6-8-6-3-5-6-5-|-0-6-8-6-0-5-6-5-0-6-8-6-3-5-6-5--||

 


 


 Interlude


 [7/4] W W


 

 
 |----------------|------|
 |----------------|------|
 |----------------|------|
 |----------------|------|

 


 


 Verse


 1.,2.,3.


 [4/4] S S S S S S S S S S S S S S S S W


 

 
 ||----------------------------------||-------||
 ||o---------------------------------||------o||
 ||o---------------------------------||------o||
 ||--0-6-8-6-0-5-6-5-0-6-8-6-3-5-6-5-||-------||

 


 


 4.


 S S S S E e S S S S E e S S S S E e S S S S E e


 

 
 |-------------------------|-------------------------|
 |-----------4-----------4-|-----------4-----------4-|
 |-5-4---------5-4---------|-5-4---------5-4---------|
 |-----7-6-4-------7-6-4---|-----7-6-4-------7-6-4---|

 


 


 Prechorus


 $


 S S S S S S S S S S S S S S S S S S S S S S S S S S S S Q


 

 
 |---------------------------------|----------------------------|
 |---------------------------------|----------------------------|
 |-------------------------5-4-----|-------5-4-------5-4--------|
 |-4-6-7-4-6-7-4-6-7-4-6-7-----7-6-|-4-6-7-----7-6-4-----7-6-4--|

 


 


 S S S S S S S S S S S S S S S S S S S S S S S S S S S S q


 

 
 |---------------------------------|----------------------------|
 |---------------------------------|----------------------------|
 |-------------------------5-4-----|-------5-4-------5-4--------|
 |-4-6-7-4-6-7-4-6-7-4-6-7-----7-6-|-4-6-7-----7-6-4-----7-6-4--|

 


 


 Chorus


 To Coda


 E. S +S S E +H E. S +S S E +H


 

 
 ||----------------------|---------------------|
 ||o---------------------|---------------------|
 ||o---------------------|---------------------|
 ||--5--7-(7)---9-(9)----|-9--7-(7)---5-(5)----|

 


 


 E. S +S S E +H E. S +S S E +H


 

 
 |---------------------|----------------------||
 |---------------------|---------------------o||
 |---------------------|---------------------o||
 |-5--7-(7)---9-(9)----|-9--7-(7)---5-(5)-----||

 


 


 Interlude


 [7/4] W W


 

 
 |----------------|------|
 |----------------|------|
 |----------------|------|
 |----------------|------|

 


 


 Verse


 [4/4] S S S S S S S S S S S S S S S S W


 

 
 |---------------------------------||------|
 |---------------------------------||------|
 |---------------------------------||------|
 |-0-6-8-6-0-5-6-5-0-6-8-6-3-5-6-5-||------|

 


 


 S S S S S S S S S S S S S S S S


 

 
 |---------------------------------||
 |---------------------------------||
 |---------------------------------||
 |-0-6-8-6-0-5-6-5-0-6-8-6-3-5-6-5-||

 


 


 D.S. al Coda


 S S S S E e S S S S E e S S S S E e S S S S E e


 

 
 |-------------------------|---------------------------|
 |-----------4-----------4-|-----------4-----------4---|
 |-5-4---------5-4---------|-5-4---------5-4-----------|
 |-----7-6-4-------7-6-4---|-----7-6-4-------7-6-4-----|

 


 


 &


 E. S +S S E +H [2/4] E. S +S S E [4/4] +E E E E E E E E E E E E E E E E


 

 
 |---------------------|--------------|-------------------|------------------|
 |---------------------|--------------|-------------------|------------------|
 |---------------------|--------------|-------------------|------------------|
 |-5--7-(7)---9-(9)----|-9--7-(7)---5-|-(5)-5-5-5-5-5-5-5-|-7-7-7-7-7-7-7-7--|

 


 


 Guitar Solo


 S S S S S S S S S S S S S S S S S S S S S S S S S S S S S S S S 4x


 

 
 ||----------------------------------|----------------------------------||
 ||o---------------------------------|---------------------------------o||
 ||o---------------------------------|---------------------------------o||
 ||--0-6-8-6-0-5-6-5-0-6-8-6-3-5-6-5-|-0-6-8-6-0-5-6-5-0-6-8-6-3-5-6-5--||

 


 


 Outro


 S S S S S S S S S S S S S S S S S S S S S S S S S S S S Q 3x


 

 
 ||----------------------------------|-----------------------------||
 ||o---------------------------------|----------------------------o||
 ||o-------------------------5-4-----|-------5-4-------5-4--------o||
 ||--4-6-7-4-6-7-4-6-7-4-6-7-----7-6-|-4-6-7-----7-6-4-----7-6-4---||

 


 


 S S S S S S S S S S S S S S S S S S S S S S S S S S S S q W


 

 
 |---------------------------------|----------------------------|------*|
 |---------------------------------|----------------------------|------*|
 |-------------------------5-4-----|-------5-4-------5-4--------|------*|
 |-4-6-7-4-6-7-4-6-7-4-6-7-----7-6-|-4-6-7-----7-6-4-----7-6-4--|------*|

 


 


 Duration Legend


 

 
 ---------------
 W - whole; H - half; Q - quarter; E - 8th; S - 16th; T - 32nd; X - 64th; a - acciaccatura

 


 + - note tied to previous; . - note dotted; .. - note double dotted


 Uncapitalized letters represent notes that are staccato (1/2 duration)


 Irregular groupings are notated above the duration line


 Duration letters will always appear directly above the note/fret number it represents the


 duration for. Duration letters with no fret number below them represent rests. Multi-


 bar rests are notated in the form Wxn, where n is the number of bars to rest for. Low


 melody durations appear below the staff


 


 Tablature Legend


 

 
 ----------------

 


 h - hammer-on


 p - pull-off


 b - bend


 pb - pre-bend


 r - bend release (if no number after the r, then release immediately)


 /\ - slide into or out of (from/to "nowhere")


 s - legato slide


 S - shift slide


 - natural harmonic


 (n) - artificial harmonic


 n(n) - tapped harmonic


 ~ - vibrato


 tr - trill


 T - tap


 TP - trem. picking


 PM - palm muting


 \n/ - tremolo bar dip; n = amount to dip


 \n - tremolo bar down


 n/ - tremolo bar up


 /n\ - tremolo bar inverted dip


 = - hold bend; also acts as connecting device for hammers/pulls


 - volume swell (louder/softer)


 x - on rhythm slash represents muted slash


 o - on rhythm slash represents single note slash


 


 Misc Legend


 

 
 -----------


Important: The song above is NOT stored on the Chordie server. The original song is hosted at www.guitartabs.cc. Chordie works as a search engine and provides on-the-fly formatting. Chordie does not index songs against artists'/composers' will. To remove this song please click here.

This song is displayed as text-only. Transposing and tuning is only available for chordpro-songs.
Rate #1 of 3 versions

Login - add to songbook

SHARE PAGE  



You need to log in to post comments