Guitar Tabs, Chords and Lyrics
Major upgrade!! After one year development the new version of Chordie is now online! Please give feedback.


Queen Bee  Taj Mahal

 
 ----------------------------------------------------------------------------

Queen Bee - Taj Mahal
 
 ----------------------------------------------------------------------------

Tabbed By : Cris
e-mail: eighthnoot47@yahoo.com
Tuning: standard
[Ab] [Gm] [Gm] [Ab]  
 
 G|-----------------|------------------|------------------|-----------------|
 D|-----------------|-----5--------5---|-----5--------5---|-----------------|
 A|------8------8---|------------------|------------------|------8-------8--|
 E|--6------6-------|--3-------3-------|--3-------3-------|--6-------6------|

[Ab] [Gm] [Gm] [Ab]  
 
 G|-----------------|------------------|------------------|-----------------|
 D|-----------------|-----5--------5---|-----5--------5---|-----------------|
 A|------8------8---|------------------|------------------|------8-------8--|
 E|--6------6-------|--3-------3-------|--3-------3-------|--6-------6------|

[Gm] [Ab] [Gm] [Ab]  
 
 G|-----------------|------------------|------------------|-----------------|
 D|------5-------5--|------------------|------5--------5--|-----------------|
 A|--5-------5------|------8--------8--|--5--------5------|------8-------8--|
 E|-----------------|--6--------6------|------------------|--6--------6-----|

[Gm] [Ab] [Gm] [Ab]  
 
 G|-----------------|------------------|------------------|-----------------|
 D|------5-------5--|------------------|------5-----------|------------5----|
 A|--5-------5------|------8--------8--|--5--------5------|---8-------------|
 E|-----------------|--6--------6------|------------------|------6-------6--|

[Ab] [Ab] [Ab] [Ab]  
 
 G|-----------------|------------------|------------------|-----------------|
 D|---------5-------|-----------5------|-----------5------|-----------5-----|
 A|--8--------------|--8---------------|--8---------------|--8--------------|
 E|-----6-------6---|------6--------6--|------6--------6--|------6-------6--|

[Ab] [Ab] [Ab]  
 
 G|-----------------|------------------|------------------|
 D|---------5-------|-----------5------|------8-----------|
 A|--8--------------|--8---------------|------------------|
 E|-----6-------6---|------6--------6--|------------------|


Important: The song above is NOT stored on the Chordie server. The original song is hosted at www.guitartabs.cc. Chordie works as a search engine and provides on-the-fly formatting. Chordie does not index songs against artists'/composers' will. To remove this song please click here.

Text color:
Chord color:
Chord grids: 
Font size:    
Page size: 

Ab Gm
Rate #2 of 4 versions

Jango Player

Login - add to songbook

SHARE PAGE  



You need to log in to post comments